Los Calientes

Pour ajouter une playlist personnelle, vous devez vous
or vous

Babasónicos

Version
studio
publié par
rafah
Ton
A-
A+
Glisser
A -> La
Video
Accords
Traduction
	 
[Intro]
Em D C B5 A C B5 Em
[Strophe]
Em D C
Ella va a salir esta noche dejando atrás
B5
su vanidad
A C
Quiere gustar y ser gustada
B5
sentirse deseada
Em
bailar y bailar
[Refrain]
G6 A7 C
Cómanse a besos esta noche
G6 A7 C
total nadie lo va a notar
G6 A7 C
Cómanse a besos esta noche
G6 A7 C
total nadie lo va a notar
[Strophe]
Em D C
Él va a salir esta noche dejando atrás
B5
su vanidad
A C
Tiene un compromiso muy corto
B5
se siente seguro
Em
de provocar
G A C
Si no te apreciara tanto
G A C
te daría un beso que te haría temblar
G A C
como yo te aprecio mucho
G A C
te lo voy a dar igual
[Refrain]
G6 A7 C
Cómanse a besos esta noche
G6 A7 C
total nadie lo va a notar
[Tab]
E|---------------------------|

B|----------------3-x-3-x-3--|

G|----------------3-x-3-x-3--|

D|----------------3-x-3-x-3--|

A|1-1-1-1-1-1-1-1------------|

E|---------------------------|

[Solo]

E|-----3---5---------3---5----------------------------|

B|-3/5---5-------3/5---5------3b5p0-------3b5p0-------|

G|----------------------------------2b3-0-------2b3-0-|

D|----------------------------------------------------|

A|----------------------------------------------------|

E|----------------------------------------------------|

[Strophe]
Em D C
Ella va a salir esta noche dispuesta a dar
B5
su calidad
A C
va a jugar su parte coqueta
B5
está tan lanzada
Em
le viene loquear
G A C
Si no te apreciara tanto
G A C
te daría un beso que te haría temblar
G A C
como yo te aprecio mucho
G A C
te lo voy a dar igual
[Refrain]
G6 A7 C
Cómanse a besos esta noche
G6 A7 C
total nadie lo va a notar
G6 A7 C
Cómanse a besos esta noche
G6 A7 C
total nadie lo va a notar
G6 A7 C
Cómanse a besos esta noche
G6 A7 C
total nadie lo va a notar
G6 A7 C
Cómanse a besos esta noche
G6 A7 C
Hoy es tiempo y este es lugar

Ce site utilise des cookies