True Colors

+ nouvelle playlist

Cyndi Lauper

Version
studio
publié par
rafah
Ton
A-
A+
Glisser
A -> La
Video
Accords
Traduction
	 
G/B x20003

C/E 0x2013

Fadd9 xx3213

Dm/C x3x231

Gsus4* 355533

F/C x3x211

[Intro]
Am G/B C F Am G/B C F
e|3-----3-3-----3-|3---------------|3-----3-3-----3-|3---------------|

B|--0-1-----0-1---|--0-1-------0-1-|--0-1-----0-1---|--0-1-----------|

G|----------------|------2---------|----------------|------2---------|

D|----------------|----------------|----------------|----------------|

A|0-----0-2-----2-|3---------------|0-----0-2-----2-|3---------------|

E|----------------|------1---1-----|----------------|------1---------|

[Strophe]
Am G/B C C/E
You with the sad eyes, don't be discouraged
Fadd9 F Am G
Oh I realize it's hard to take courage
C Dm C/E F
In a world full of people, you can lose sight of it all
Am G Dm/C C
And the darkness inside you make you feel so small
[Refrain]
F C Gsus4 G
But I'll see your true colors shining through
F C/E F Gsus4 G
I'll see your true colors, and that's why I love you
F C/E F Am
So don't be afraid to let them show
F/C C F/C C Gsus4 Am
Your true colors, True colors are beautiful, like a rainbow
[Tab]
Am G/B C F Am G/B C F
e|3-----3-3-----3-|3---------------|3-----3-3-----3-|3---------------|

B|--0-1-----0-1---|--0-1-----0-1---|--0-1-----0-1---|--0-1-----0-1---|

G|----------------|------2-------2-|----------------|------2-------2-|

D|----------------|----------------|----------------|----------------|

A|0-----0-2-----2-|3---------------|0-----0-2-----2-|3---------------|

E|----------------|------1---------|----------------|------1---------|

Am G/B C F Am G/B C F
e|3-----3-3-----3-|3---------------|3-----3-3-----3-|3---------------|

B|--0-1-----0-1---|--0-1-----0-1---|--0-1-----0-1---|--0-1-----------|

G|----------------|------2-------2-|----------------|------2---------|

D|----------------|----------------|----------------|----------------|

A|0-----0-2-----2-|3---------------|0-----0-2-----2-|3---------------|

E|----------------|------1---------|----------------|------1---------|

[Strophe]
Am G C C/E
Show me a smile then, don't be unhappy,
Fadd9 F Am G
Can't remember when I last saw you laughing
C Dm C/E F
If this world makes you crazy and you've taken all you can bear
Am G F/C C
You call me up, because you know I'll be there
[Refrain]
F C Gsus4 G
And I'll see your true colors shining through
F C/E F Gsus4 G
I'll see your true colors, and that's why I love you
F C F Am
So don't be afraid to let them show
F/C C F/C C Gsus4 Am
Your true colors, your true colors are beautiful, like a rainbow
[Tab]
Am G/B C F Am G/B C F
e|3-----3-3-----3-|3---------------|3-----3-3-----3-|3---------------|

B|--0-1-----0-1---|--0-1-----0-1---|--0-1-----0-1---|--0-1-----------|

G|----------------|------2-------2-|----------------|------2---------|

D|----------------|----------------|----------------|----------------|

A|0-----0-2-----2-|3---------------|0-----0-2-----2-|3---------------|

E|----------------|------1---------|----------------|------1---------|

[Strophe]
Am G C C/E
Oooo....
Fadd9 Am G
Can't remember when I last saw you laughing (whispered)
C Dm C/E F
If this world makes you crazy and you've taken all you can bear
Am G F/C C
You call me up, because you know I'll be there
[Refrain]
F C Gsus4 G
And I'll see your true colors shining through
F C/E F Gsus4 G
I'll see your true colors and that's why I love you
F C F Am
So don't be afraid to let them show
F/C C F/C C
Your true colors, true colors
F/C C Gsus4 G
true colors are shining through
F C/E F Gsus4 G
I'll see your true colors, and that's why I love you
F C E7 Am F/C C F/C C
So don't be afraid to let them show Your true colors, true colors
Gsus4 Am
Are beautiful, like a rainbow ...
[Tab]
Am G/B C F
e|3-----3-3-----3-|3-----------------|

B|--0-1-----0-1---|--0-1-------------|

G|----------------|------2-----------|

D|----------------|------------------|

A|0-----0-2-----2-|3-----------------|

E|----------------|------1-----------|