Bang Bang

Pour ajouter une playlist personnelle, vous devez vous
or vous

Dalida

Version
studio
publié par
rafah
Ton
A-
A+
Glisser
A -> La
Video
Accords
	 
[Tab]
Am Dm E Am
e|--0---------0--------1------1-0-----0------1-0---------0-----|

B|--1-------1----3-1---3----3------3--0----0-----3-1--0--1-----|

G|--2----2-------------2--2-----------1--1---------------2-----|

D|--2------------------0--------------2------------------2-----|

A|--0---------------------------------2------------------0-----|

E|------------------------------------0------------------------|

[Strophe]
Am
Mi ricordo quando noi
Am
Eravamo due bambini
G
E puntavamo le pistole
E
Dai cavalli a dondolo
[Strophe]
Am
Bang bang - Io sparo a te
Am
Bang bang - Tu spari a me
G
Bang bang - E vincerà
E
Bang bang - Chi al cuore colpirà.
[Tab]
Am Dm E Am
e|--0---------0--------1------1-0-----0------1-0---------0-----|

B|--1-------1----3-1---3----3------3--0----0-----3-1--0--1-----|

G|--2----2-------------2--2-----------1--1---------------2-----|

D|--2------------------0--------------2------------------2-----|

A|--0---------------------------------2------------------0-----|

E|------------------------------------0------------------------|

[Strophe]
Am
Sono passati gli anni e poi
Am
Noi ci siamo innamorati
G
Correvamo per i prati
E
Tu scherzavi insieme a me
[Strophe]
Am
Bang bang -Per ridere
Am
Bang bang - Sparavi a me
G
Bang bang - E vincerà
E
Bang bang - Chi al cuore colpirà.
[Tab]
Am Dm E Am
e|--0---------0--------1------1-0-----0------1-0---------0-----|

B|--1-------1----3-2---3----3------3--0----0-----3-1--0--1-----|

G|--2----2-------------2--2-----------1--1---------------2-----|

D|--2------------------0--------------2------------------2-----|

A|--0---------------------------------2------------------0-----|

E|------------------------------------0------------------------|

[Strophe]
F
Certo non scherzavi tu
Em
Quando mi sparavi al cuor
Dm
Nel mirar non sbagliavi mai
C
Prove a negare se tu vuoi .
[Strophe]
Am
Ora non mi ami più
Am
Ed ho sentito un colpo al cuore
G
Quando mi hai detto che
E
Non vuoi stare più con me
[Refrain]
Am
Bang bang - E resto cui
Am
Bang bang - A piangere
G
Bang bang - Hai vinto tu
E
Bang bang Il cuore non l'ho più.
[Tab]
Am Dm E Am
e|--0---------0--------1------1-0-----0------1-0---------0-----|

B|--1-------1----3-2---3----3------3--0----0-----3-1--0--1-----|

G|--2----2-------------2--2-----------1--1---------------2-----|

D|--2------------------0--------------2------------------2-----|

A|--0---------------------------------2------------------0-----|

E|------------------------------------0------------------------|

[Strophe]
Am
Quando vedo intorno a me
Am
Che i bambini giocano
G
E puoi fingon di sparar
E
Come mi si stringe il cuore
[Refrain]
Am
Bang bang - Rivedo te
Am
Bang bang - Che spari a me
G
Bang bang - Quel suono sai
E Am
Bang bang - Non lo scorderò mai
[Tab]
Am Dm E Am
e|--0---------0--------1------1-0-----0------1-0---------0-----|

B|--1-------1----3-2---3----3------3--0----0-----3-1--0--1-----|

G|--2----2-------------2--2-----------1--1---------------2-----|

D|--2------------------0--------------2------------------2-----|

A|--0---------------------------------2------------------0-----|

E|------------------------------------0------------------------|

Am
e|----------------------------------------------------0--------|

B|----0------1--3--5--7--9--10--12--13-------10------1---------|

G|--2-----------------------------------------------2----------|

D|-------------------------------------------------2-----------|

A|------------------------------------------------0------------|

E|-------------------------------------------------------------|