Chica Rutera

Pour ajouter une playlist personnelle, vous devez vous
or vous

El mató a un Policía Motorizado

Version
studio
publié par
fabricio
Ton
A-
A+
Glisser
A -> La
Video
Accords
Traduction
	 
[Intro]
e--------------------------------------|

b-------3-------3-------3-------3---3--|

g-----2---2---2---2---2---2---4---4----|

d---0-------0-------0------------------|

a--------------------------------------|

E--------------------------------------|

[Strophe]
D Bm D
Eh... Espero que vuelvas
Bm D
Espero que vuelvas
Bm D Bm
Espero que vuelvas
D Bm D
Eh... chica rutera
Bm D
chica rutera
Bm D
chica rutera
[Strophe]
D Bm D
Eh... Espero que vuelvas
Bm D
Espero que vuelvas
Bm D Bm
Espero que vuelvas
D Bm D
Eh... chica rutera
Bm D
chica rutera
Bm D
chica rutera
[Pont]
| D | Bm | D |
[Intro]
e--------------------------------------|

b-------3-------3-------3-------3---3--|

g-----2---2---2---2---2---2---4---4----|

d---0-------0-------0------------------|

a--------------------------------------|

E--------------------------------------|

[Strophe]
D Bm D
Eh... Espero que vuelvas
Bm D
Espero que vuelvas
Bm D Bm
Espero que vuelvas
D Bm D
Eh... chica rutera
Bm D
chica rutera
Bm D
chica rutera
[Strophe]
D Bm D
Eh... Espero que vuelvas
Bm D
Espero que vuelvas
Bm D Bm
Espero que vuelvas
D Bm D
Eh... chica rutera
Bm D
chica rutera
Bm D
chica rutera
[Strophe]
D Bm D
Eh... Espero que vuelvas
Bm D
Espero que vuelvas
Bm D Bm
Espero que vuelvas
D Bm D
Eh... chica rutera
Bm D
chica rutera
Bm D
chica rutera
[Outro]
| D | Bm | D |
[Intro]
e--------------------------------------|

b-------3-------3-------3-------3---3--|

g-----2---2---2---2---2---2---4---4----|

d---0-------0-------0------------------|

a--------------------------------------|

E--------------------------------------|

Ce site utilise des cookies