Maradó (Intro Maradó)

Pour ajouter une playlist personnelle, vous devez vous
or vous

Los Piojos

Version
studio
publié par
iri
Ton
A-
A+
Glisser
A -> La
Video
Accords
Traduction
	 
Dicen que escapó de un sueño

En casi, su mejor gambeta

Que ni los sueños respeta

Tan lleno va de coraje

Sin demasiado ropaje

Y sin ninguna careta

Dicen que escapó este mozo

Del sueño de los sin jeta

Que a los poderosos reta

Y ataca a los más villanos

Sin más armas en la mano

Que un "diez", en la camiseta.

[Riff]
A Bb A Ab

e|--------------------|------------------|------------|------|

b|--------------------|------------------|------------|---8--|

g|--------5-4-5-7-8-7-|------------------|-5-5-5-4-5--|---5--|

D|--------------------|-8-5-7------------|-7-7-7-6-7--|-8-5--|

A|-0--7---------------|-------8----------|------------|-6----|

E|--------------------|----------6-5-----|------------|------|

[Strophe]
A Bb
Cae del cielo brillante balón,
A Ab
Toda la gente y todo el mundo ve,
A Bb
Una revancha redonda en su pie,
A Ab
Todo el país con el corriendo va,
A Bb
Caen las tropas de su majestad,
A Ab
Y cae el norte de la Italia rica,
A Bb
Y el papa dando vueltas no se explica,
A Ab
Muerde la lengua de Joao Havelange.
[Refrain]
A Bb A Ab
Maradó, Maradó, Maradó, Maradó
A Bb A Ab
Maradó, Maradó, Maradó, Maradó
[Strophe]
A Bb
Rinoscopia embiste a cualquier
A Ab
A cualquier quia del poder letal
A Bb
Rinoscopia cuerno de marfil
A Ab
Filo platino para reventar
A Bb
Y la champaña que descorchan hoy
A Ab
Guarden los corchos para un bote hacer
A Bb
Que viene el río del hambre y la sed
A Ab
Y ya no hay goles que den de morfar.
[Refrain]
A Bb A Ab
Maradó, Maradó, Maradó, Maradó
A Bb A Ab
Maradó, Maradó, Maradó, Maradó
[Post-Refrain]
Em
Cuando se caigan a pedazos las paredes
C
De esta gran ciudad
Em
Cuando no queden en el aire mas cenizas
F Em
De lo que será, que sea.
[Riff]
A Bb A Ab
e|--------------------|------------------|------------|------|

b|--------------------|------------------|------------|---8--|

g|--------5-4-5-7-8-7-|------------------|-5-5-5-4-5--|---5--|

D|--------------------|-8-5-7------------|-7-7-7-6-7--|-8-5--|

A|-0--7---------------|-------8----------|------------|-6----|

E|--------------------|----------6-5-----|------------|------|

[Strophe]
A Bb
Y sigue el Diego, el mejor en lo suyo
A Ab
Si vos los fueras no habría tanto yuyo
A Bb
Y va el cafiolo por el tobogán
A Ab
Va para arriba va riendo, ja!
A Bb
Y viaja afuera alfombra mágica
A Ab
Alfombra va privada mil millón
A Bb
Todos se empilchan para la ocasión
A Ab
Y esperan alguna miga...ja!
[Refrain]
A Bb A Ab
Maradó, Maradó, Maradó, Maradó
A Bb A Ab
Maradó, Maradó, Maradó, Maradó
[Post-Refrain]
Em
Cuando se caigan a pedazos las paredes
C
De esta gran ciudad
Em
Cuando no queden en el aire mas cenizas
F Em
De lo que será, que sea.
[Pont]
A - Bb - A - Ab

A - Bb - A - Ab

[Refrain]
A Bb A Ab
Maradó, Maradó
A Bb A Ab
Maradó, Maradó
A Bb A Ab
Maradó, Maradó
A Bb A Ab
Maradó, Maradó
[Solo]
A - Bb - C - Bb
Ce site utilise des cookies