Pierre, el vitricida

Pour ajouter une playlist personnelle, vous devez vous
or vous

Patricio Rey y sus Redonditos de Ricota

Version
studio
publié par
iri
Ton
A-
A+
Glisser
A -> La
Video
Accords
Traduction
	 
[Intro]
E7
e|-------------------------|

b|-------------------------|

g|5-5-4-4-2-2-1------------|

D|--------------2-2-2-0-2-2|

A|-------------------------|

E|-------------------------|

[Intro]
(E7 - Am)x3

E7 - F - F - F - F - F - Am

[Strophe]
E7 Am
Como se rie el gordo Pierre
E7 Am
y rompio el vidrio el gordo Pierre
E7 Am
como rajó el gordo Pierre
E7 F F F
y como tose el gordo Pierre, Pierre, Pierre
E7 Am
Y commo se rie el gordo Pierre
E7 Am
y como tose el gordo Pierre
E7 Am
el vitricida el gordo Pierre
E7 F F F
y rompio el vidrio el gordo Pierre, Pierre, Pierre
[Tab]

[Puente]

e|----------------------|

b|----------------------|

g|-5-5--4-4--2-2--------|

D|----------------2-(2)-|

A|----------------------|

E|----------------------|

Ce site utilise des cookies