Je suis venu te dire que je m'en vais

Pour ajouter une playlist personnelle, vous devez vous
or vous

Serge Gainsbourg

Version
studio
publié par
iri
Ton
A-
A+
Glisser
A -> La
Video
Accords
	 
[Intro]
A C#m
e|-------------7---------| |-------------7----------|

B|-------5--------5-----5| |-------5--------5-----5-|

G|----6-----6--------6---| |----6-----6--------6----|

D|-----------------------| x2, |------------------------| x2

A|-0---------------------| |-4----------------------|

E|-----------------------| |------------------------|

G#m7
e|-------------7----------|

B|-------4--------4-----4-|

G|----4-----4--------4----|

D|------------------------| x2

A|------------------------|

E|-4----------------------|

D E
e|--------------5-----------------------7----------|

B|--------7--------7-----7--------9--------9-----9-|

G|-----7-----7--------7--------9-----9--------9----|

D|-------------------------------------------------|

A|--5-----------------------7----------------------|

E|-------------------------------------------------|

[Strophe]
A C#m
Je suis venu te dire que je m'en vais
G#m D E
Et tes larmes n'y pourront rien changer
A C#m
Comme dit si bien Verlaine au vent mauvais
G#m D E
Je suis venu te dire que je m'en vais
[Pont]
C#m Bm

C#m D E Esus4


[Strophe]
C#m Bm
Tu t'souviens des jours anciens et tu pleures
C#m D E
Tu suffoques, tu blemis a present qu'a sonne l'heure
[Strophe]
A
Des adieux a jamais (ouais)
C#m G#m
Je suis au regret de te dire que je m'en vais
D E
Je t'aimais, oui, mais
[Strophe]
A C#m
Je suis venu te dire que je m'en vais
G#m D E
Tes sanglots longs n'y pourront rien changer
A C#m
Comme dit si bien Verlaine au vent mauvais
G#m D E
Je suis venu te dire que je m'en vais
[Pont]
C#m Bm
Tu t'souviens des jours heureux et tu pleures
C#m D E
Tu suffoques, tu gemis a present qu'a sonne l'heure
[Strophe]
A
Des adieux a jamais (ouais)
C#m G#m
Je suis au regret de te dire que je m'en vais
D E
Car tu m'en a trop fait
[Strophe]
A C#m
Je suis venu te dire que je m'en vais
G#m D E
Et tes larmes n'y pourront rien changer
A C#m
Comme dit si bien Verlaine au vent mauvais
G#m D E
Je suis venu te dire que je m'en vais
[Pont]
C#m Bm
Tu t'souviens des jours anciens et tu pleures
C#m D E
Tu suffoques, tu blemis a present qu'a sonne l'heure
[Strophe]
A
Des adieux a jamais (ouais)
C#m G#m
Je suis au regret de te dire que je m'en vais
D E
Je t'aimais, oui, mais
A C#m
Je suis venu te dire que je m'en vais
G#m D E
Et tes larmes n'y pourront rien changer
A C#m
Comme dit si bien Verlaine au vent mauvais
G#m D E
Je suis venu te dire que je m'en vais
[Pont]
C#m Bm
Tu t'souviens des jours anciens et tu pleures
C#m D E
Tu suffoques, tu blemis a present qu'a sonne l'heure
[Strophe]
A
Des adieux a jamais (ouais)
C#m G#m
Je suis au regret de te dire que je m'en vais
D E
Car tu m'en a trop fait
Ce site utilise des cookies