Big Empty

Pour ajouter une playlist personnelle, vous devez vous
or vous

Stone Temple Pilots

Version
studio
publié par
fabricio
Ton
A-
A+
Glisser
A -> La
Video
Accords
Traduction
	 
[Verse] [Chorus] [Post Chorus]

Em [022000] G [320003] G [355433]

C [x35553] A [x02220] F [133211]

C7 [x32310] C [x35553] Asus2 [x02200]

E [022100]

[Intro]
e|---------------------3/7-10~-7-10-6~-\3-5-5/6\5-3--5-3--3/7-10~--|

B|-8~-7-8-7~-\3-3-3~-0---------------------------------------------|

G|-----------------------------------------------------------------|

D|-----------------------------------------------------------------|

A|-----------------------------------------------------------------|

E|-----------------------------------------------------------------|

[Intro]
| Em | C C7 |
[Strophe]
Em C C7
Driving faster in my car
Em C C7
Falling farther from just what we are
Em C
Smoke a cigarette and lie some more
These conversations kill
Em C C7
Falling faster in my car
[Refrain]
G A
Time to take her home,
C
Her dizzy head is conscience laden.
G A C
Time to take a ride it leaves today, No conversation
G A
Time to take her home
C
her dizzy head is Conscience laden
G A C
Time to wait too long, to wait too long, To wait too long.
[Solo]
| Em | C C7 |
e|---10/12\3-3/6~------3-5-6~--3-5-3-3/7-10~--10/12\10-6~--3/6-3/5-------|

B|-----------------3/5---------------------------------------------3/5~--|

G|-----------------------------------------------------------------------|

D|-----------------------------------------------------------------------|

A|-----------------------------------------------------------------------|

E|-----------------------------------------------------------------------|

[Strophe]
Em C C7
Too much walking shoes worn thin
Em C C7
Too much trippin' and my soul's worn thin
Em C
Time to catch her ride it leaves today,
Her name is what it means
Em C C7
Too much walking shoe worn thin
[Refrain]
G A
Time to take her home,
C
Her dizzy head is conscience laden.
G A C
Time to take a ride it leaves today, No conversation
G A
Time to take her home
C
her dizzy head is Conscience laden
G A C
Time to wait too long, to wait too long, To wait too long.
[Pont]
G F Asus2 E
Conversations kill
G F Asus2 E
Conversations kill
G F Asus2 E
Conversations kill
[Solo]
G F7 E7sus4 E7
e|---10/12\3-3/6~------3-5-6~--3-5-3-3/7-10~--10/12\10-6~--3/6-3/5-------|

B|-----------------3/5---------------------------------------------3/5~--|

G|-----------------------------------------------------------------------|

D|-----------------------------------------------------------------------|

A|-----------------------------------------------------------------------|

E|-----------------------------------------------------------------------|

[Refrain]
G A
Time to take her home,
C
Her dizzy head is conscience laden.
G A C
Time to take a ride it leaves today, No conversation
G A
Time to take her home
C
her dizzy head is Conscience laden
G A C
Time to wait too long, to wait too long, To wait too long.
[Outro]
G F Asus2 E
Conversations kill
G F Asus2 E
Conversations kill
G F Asus2 E
Conversations kill
Ce site utilise des cookies