Losing Face

Pour ajouter une playlist personnelle, vous devez vous
or vous

Wilbur Soot

Version
studio
publié par
sunlight
Ton
A-
A+
Glisser
A -> La
Video
[Capo en 3]
Accords
Traduction
	 
C*, Fmaj7* = barre version

Bridge chords:

Cmaj7 x-3-2-0-0-0

Em9/D x-5-4-0-0-0

G6 x-10-9-0-0-0

A9 x-12-11-0-0-0

[Intro]
Em Gmaj7 Am C D x2
[Strophe]
Em
First and foremost
Gmaj7 Am
Oh, let it be said, my dear
C D Em
I was gonna wait for you
Gmaj7 Am
So this is not an act of spite
C D Em
It's a visceral coming-to
Gmaj7 Am
She wrote an album
C D Em
And that's something that I can't do
Gmaj7 Am
But what I can do is spit the truth
C Em
And it all leads back to you
[Instrumentale]
Em G Am C D x2
[Strophe]
Em Gmaj7 Am
Secondly, I know I haven't written much
C D Em
You know the way I can be
Gmaj7 Am
Tonight, I'm fucking drunk
C D Em
So it's all gonna be about me
Gmaj7 Am
Take a seat, pull up a chair
C D Em
Give me one beat to fill my glass
Gmaj7 Am
I've lost a piece of me in you
C D C
But you've lost all your past
[Instrumentale]
C Gmaj7 Am Em D
[Refrain]
C Gmaj7 Am
Is he better than me?
Em D C
Has he seen more to this life?
Gmaj7
Can he smoke more?
Am
Can he fuck more?
Em D C
Are you good enough to be his wife?
Gmaj7
Can he break me?
Am
Can he break you?
Em D C Gmaj7 Am
Oh, I don't know what I'm to do
Em
Yes, I don't know what I'll fuckin' do
[Instrumentale]
Em G Am C D x2
[Strophe]
Em Gmaj7 Am
I've seen our café, I've clocked our plans
C D Em
Oh, what could have been
Gmaj7 Am
If you didn't go and fall in love
C Em
And ruin everything
Gmaj7
I've seen him
Am
I've been him
C D Em
I've felt the same way
Gmaj7 Am
But now I break against the dirt
C D
Along with our cafés
[Refrain]
Em Gmaj7 Am
Is he better than me?
Em D C
Has he seen more to this life?
Gmaj7
Can he smoke more?
Am
Can he fuck more?
Em D C
Are you good enough to be his wife?
Gmaj7
Can he break me?
Am
Can he break you?
Em D C Gmaj7 Am
Well, I don't know what I'm to do
Em
Yes, I don't know what I'll fuckin' do
[Pont]
Cmaj7 Em9/D G6 x2
Cmaj7 Em9/D G6
I've lost all meaning
Cmaj7
I've lost my sense of hope
Em9/D G6
I've seen him going out with you
I've seen what he can do
Cmaj7
So touch him
Em9/D
And break me
G6
Strip naked
A9
Embrace him
Cmaj7
Lose faith in
Em9/D
His pace,
G6 A9
His stamina and grace
C Cmaj7 Am Em D
I'm losing face
C Gmaj7 Am Em D
I'm losing face
D
I'm losing -
[Tab]
e|---------------------------------|---------------------------------|

B|-------0-------0-------0-------0-|-------0-------0-------0-------0-|

G|---0-------0-------0-------0-----|---0-------0-------0-------0-----|

D|---------------------------------|---------------------------------|

A|-3---3---3---3---3---3---3---3---|-5---5---5---5---5---5---5---5---|

E|---------------------------------|---------------------------------|

e|---------------------------------|---------------------------------|

B|-------0-------0-------0-------0-|-------0-------0-----------------|

G|---0-------0-------0-------0-----|---0-------0---------------------|

D|---------------------------------|---------------------------------|

A|-7---7---7---7---7---7---7---7---|-6---6---6---6---6-----------2---|

E|---------------------------------|---------------------------------|

I don't care I want you here

e|---------------------------------|---------------------------------|

B|-------0-------0-------0-------0-|-------0-------0-------0-------0-|

G|---0-------0-------0-------0-----|---0-------0-------0-------0-----|

D|---------------------------------|---------------------------------|

A|-3---3---3---3---3---3---3---3---|-5---5---5---5---5---5---5---5---|

E|---------------------------------|---------------------------------|

As long as you're happy I don't care

e|---------------------------------|---------------------------------|-----------------|

B|-------0-------0-------0-------0-|-------0-------0-------0---------|-----------------|

G|---0-------0-------0-------0-----|---0-------0-------0-------0-----|-----------------|

D|---------------------------------|---------------------------------|-----------------|

A|-7---7---7---7---7---7---7---7---|-6---6---6---6---6---6---6---2---|-3---------------|

E|---------------------------------|---------------------------------|-----------------|