Knee Deep

Pour ajouter une playlist personnelle, vous devez vous
or vous

Zac Brown Band

Version
studio
publié par
sunlight
Ton
A-
A+
Glisser
A -> La
Video
[Capo en 3]
Accords
Traduction
	 
[Riff]
CaddG F C G C
e|---3-3---3--3-3--0-----1-1--1100-------------------------------0x00x0------------|

B|--1-1-1---1--1-1--------1-1-----3p1--------1-1------00---------1x11x1------------|

G|-0-----0---0----0-----2----2-------2p0------0-0-0-----2p0-0----0x00x0------------|

D|---------------------3--------------------2----2---------2----22x22x2------------|

A|-----------------------------------------3-------------------3-3x33x3----0-2-[3]-|

E|---------------------------------------------------3-----------xxxxxx--3---------|

CaddG F Am G F G C
e|---3-3---3--3-3--0-----1-1--1100-------------------------------------------------|

B|--1-1-1---1--1-1--------1-1-----3p1-----1-1-0-0---1-0-001------------------------|

G|-0-----0---0----0-----2----2-------2p0---0-0-0-020-0-0--------------2------------|

D|---------------------3-----------------------------------0h2h3h5-2h5-0h2---------|

A|---------------------------------------------------------------------------0-2-3-|

E|-------------------------------------------------------------------------3-------|

[Strophe]
CaddG
Gonna put the the world away for a minute
F
Pretend I don't live in it
C G C
Sunshine gonna wash my blues away
CaddG
Had sweet love but I lost it
F
She got too close so I fought her
Am G F G C
Now I'm lost in the world trying to find me a better way
[Refrain]
CaddG
Wishing I was knee deep in the water somewhere
F
Got the blue sky breeze and it don't seem fair
C G C [*]
Only worry in the world is the tide gonna reach my chair
CaddG
Sunrise there's a fire in the sky
F
Never been so happy, never felt so high
Am G F G C
And I think I might have found me my own kind of paradise
Riff [1st half]
[Strophe]
CaddG
Wrote a note said be back in a minute
F
Bought a boat and I sailed off in it
C G C
Don't think anybody's gonna miss me anyway
CaddG
Mind on a permanent vacation
F
The ocean is my only medication
Am G F G C
Wishing my condition ain't ever gonna go away
[Refrain]
CaddG
Cause now I'm knee deep in the water somewhere
F
Got the blue sky breeze blowing wind through my hair
C G C [*]
Only worry in the world is the tide gonna reach my chair
CaddG
Sunrise there's a fire in the sky
F
Never been so happy, never felt so high
Am G F G C
And I think I might have found me my own kind of paradise
[Strophe]
Am C
This champagne shore washing over me
G C CaddBb
It's a sweet, sweet life living by the salty sea
F C
One day you could be as lost as me
D7
Change your geography
G
Maybe you might be
[Refrain]
CaddG [x1]
Knee deep in the water somewhere
[F]
Got the blue sky breeze blowing wind through my hair
[C] [G] [C]
Only worry in the world is the tide gonna reach my chair
CaddG
Sunrise there's a fire in the sky
F
Never been so happy, never felt so high
Am G F G C
And I think I might have found me my own kind of paradise
[Outro]
C [x1] G [x1]
Come on in the water's nice, find yourself a little slice
C [x1] G [x1] Am [x1] G [x1] F [x1]
Grab a backpack of lies, you never know until you try
D7 [x1] G CaddG
When you lose yourself, you find the key to paradise
[Riff]
CaddG F C G C [*]
e|---3-3---3--3-3--0-----1-1--1100-------------------------------0x00x0----------|

B|--1-1-1---1--1-1--------1-1-----3p1--------1-1------00---------1x11x1----------|

G|-0-----0---0----0-----2----2-------2p0------0-0-0-----2p0-0----0x00x0----------|

D|---------------------3--------------------2----2---------2----22x22x2----------|

A|-----------------------------------------3-------------------3-3x33x3----0-2-3-|

E|---------------------------------------------------3-----------xxxxxx--3-------|

CaddG F Am G F G C
e|---3-3---3--3-3--0---111-1-1-1100---------------------------------------|

B|--1-1-1---1--1-1-----111-1-1-----3p1------------------------------------|

G|-0-----0---0----0----222-2-2--------2p0------------------0h20-----------|

D|---------------------333-3-3---------------0h2--02h30-2h3----3p2p0------|

A|---------------------xxx-x-x--------------3---3-------------------3~~~~-|

E|---------------------xxx-x-x--------------------------------------------|