Mariposas

Per aggiungere un elenco personale è necessario effettuare il
o

Belanova

Versione
studio
pubblicato da
sweety
Tono
A-
A+
Scorrere
A -> La
Video
[Capo al 3]
Accordi
Traduzione
	 
[Intro]
C G
E|--------------------|

A|-------3------2-----|

D|---0------0---------|

G|--------------------| x2

B|--------------------|

e|--------------------|

[Versetto]
C
mariposas dentro de mi cuerpo
G
todo es movimiento, yo soy movimiento.
C
mira como gira el universo
G
eso es lo que siento, eso es lo que siento
[Pre-Ritornello]
Em D
no, no me voy a detener
C
no me voy a detener
hoy, no.
Em D
yo, volaré sobre tu piel
C Am
no se a donde lle-ga-ré.
[Ritornello]
C G
no tengo miedo de explotar
C
no importa lo que pueda pasar
G
yo solo quiero navegar un sueño
C G
no tengo miedo de explotar
C
no importa lo que pueda pasar
G
yo solo quiero navegar con-ti-go
[Tab]
C G (x2)
E|--------------------|

A|--------------------|

D|--------------------|

G|--0--------------0--| x3

B|-----0--0--0--1-----|

e|--------------------|

E|----------------|

A|----------------|

D|----------------|

G|--0-------------|

B|-----0-0-0-1-3--|

e|----------------|


(ambos se repiten 2 veces)

[Versetto]
C
Asteroides dentro de mi cuerpo
G
todo es movimiento, yo soy movimiento
C
gira el mundo dentro de mi cuerpo
G
eso es lo que siento, eso es lo que siento
[Pre-Ritornello]
Em D
No, no me voy a detener
C
no me voy a detener
hoy, no.
Em D
yo, volaré sobre tu piel
C Am
no se a donde lle-ga-ré.
[Ritornello]
C G
no tengo miedo de explotar
C
no importa lo que pueda pasar
G
yo solo quiero navegar un sueño
C G
no tengo miedo de explotar
C
no importa lo que pueda pasar
G
yo solo quiero navegar con-ti-go