Yo tomo

Per aggiungere un elenco personale è necessario effettuare il
o

Bersuit Vergarabat

Versione
studio
pubblicato da
iri
Tono
A-
A+
Scorrere
A -> La
Video
Accordi
Traduzione
	 
[Riff]
e|---------------------------------------|---------------------------------------|

b|---------------------------------------|---------------------------------------|

g|---------------------------------------|---------------------------------------|

D|-----------------------------------5-7-|-----------------------------------7-9-|

A|-0-0-0-3-5-5-5-3-0-0-0-3-5-5-5-3-0-3-5-|-0-0-0-3-5-5-5-3-0-0-0-3-5-5-5-3-0-5-7-|

E|---------------------------------------|---------------------------------------| x2

e|-(8-7-5(x5)----------(7-5-4(x5)-8-7-5-7-8----|-(8-7-5(x5)-10-8-7-8-10--12-10-8-10-8----8---|

b|------------6-565----------------------------|--------------------------------------12---12|

g|------------------7--------------------------|---------------------------------------------|

D|---------------------------------------------|---------------------------------------------|

A|---------------------------------------------|---------------------------------------------|

E|---------------------------------------------|---------------------------------------------|

e|-----------------------------------------------------|

b|-10-12-10-8-10-8-------------------------------------|

g|------------------10-9-------------------------------|

D|-----------------------------------------------------|

A|-----------------------------------------------------|

E|-----------------------------------------------------|

[Riff]
e|--8-7-5(x5)----------(7-5-4(x5)-8-7-5-7-8----|-(8-7-5(x5)-10-8-7-8-10--12-10-8-10-8----8---|

b|------------6-565----------------------------|--------------------------------------12---12|

g|------------------7--------------------------|---------------------------------------------|

D|---------------------------------------------|---------------------------------------------|

A|---------------------------------------------|---------------------------------------------|

E|---------------------------------------------|---------------------------------------------|

e|-----------------------------------------------------|

b|-10-12-10-8-10-8-------------------------------------|

g|------------------10-9-------------------------------|

D|-----------------------------------------------------|

A|-----------------------------------------------------|

E|-----------------------------------------------------|

[Intro]
Am - Dm - E - A - E


[Versetto]
Am
Quien sos, cómo sos, cuando venís,
Dm
cuando llegaste, cuando te vas
E Am E
por que te fuiste, quien se cagó (¡no fui yo!)
Am
Que hora es, que vamos a comer,
Dm
por que me miras, que te debo yo,
E Am E
deja ese salame, llevate este jamón.
[Coro]
Am E
Tomo para no enamorarme
E Am
me enamoro para no tomar
Am E
tomo para no enamorarme
E Am
me enamoro para no tomar
[Versetto]
Am
Por qué no te morís, por que no te matas
Dm
de que te reís, no se por que lloras
E Am E
quien te vendió esa cara, por que la compre yo [¡Oooh!]
Am
No se si me querés, no se si me engañas,
Dm
no se si volveré, no se si volverás
E Am E
¿'tá todo bien? ¿o está todo mal?
[Coro]
Am E
Tomo para no enamorarme
E Am
me enamoro para no tomar
Am E
tomo para no enamorarme
E Am
me enamoro para no tomar
[Solo]
e|-5-5-7-8--|-5-5-7-8--|-7-7-8--10-|-7-7-8--10-|-7-7-7-7-10-10-10-8--7-8--7-5-4-|

B|-7-7-9-10-|-7-7-9-10-|-9-9-10-12-|-9-9-10-12-|-9-9-9-9-12-12-12-10-9-10-8-6-5-|

G|----------|----------|-----------|-----------|--------------------------------|

D|----------|----------|-----------|-----------|--------------------------------|

A|----------|----------|-----------|-----------|--------------------------------|

E|----------|----------|-----------|-----------|--------------------------------|

e|---|-----0---0---|-----0---0---|-----1---1---|------1---1-1-----|-0-----|---0---------------0-|

B|---|---1---1-----|---1---1-----|---3---3-----|---3----3-----5---|---4-3-|-3---3-1-------1-3---|

G|-2-|-2---------2-|-2---------2-|-2---------2-|-2--------------8-|-------|---------2-2-4-------|

D|---|-------------|-------------|-------------|------------------|-------|---------------------|

A|---|-------------|-------------|-------------|------------------|-------|---------------------|

E|---|-------------|-------------|-------------|------------------|-------|---------------------|

[Versetto]
Am Dm
mi nena rubia que bello recuerdo
E Am
de aquel primer beso, de aquel primer beso
Am
y si me prendo en fuego de tan solo pensarlo
Dm Am
reina del valle constitucion
[Versetto]
Am
¿porque no te dormi? ¿porque no laburas?
Dm
yo te mantengo y no te bañas
E Am E
o te lavas lo pieses o te los lavo yo (¡oooh!)
Am
¿cuanto tenes? ¿cuanto me das?
Dm
¿cuanto queres? ¿cuanto cobras?
E Am E
¿quien es el boludo? pues el boludo soy yo
[Coro]
Am E
Tomo para no enamorarme
E Am
me enamoro para no tomar
Am E
tomo para no enamorarme
E Am
me enamoro para no tomar
[Coro]
Am E
Tomo para no enamorarme
E Am
me enamoro para no tomar
Am E
tomo (tomo-omo) para no enamorarme (arme arme)
E Am
me enamoro (solo solo) para no tomar
[Riff]
e|------------------------------------------|------------------------------------------|

b|------------------------------------------|------------------------------------------|

g|------------------------------------------|------------------------------------------|

D|-------------------------------------5-7--|-------------------------------------7-9--|

A|-0-0-0-3-5-5-5-3-0-0-0-3-5-5-5-3--0--3-5--|-0-0-0-3-5-5-5-3-0-0-0-3-5-5-5-3--0--5-7--|

E|------------------------------------------|------------------------------------------| x 2

Questo sito utilizza i cookie