Esa noche

Per aggiungere un elenco personale è necessario effettuare il
o

Café Tacvba

Versione
studio
pubblicato da
iri
Tono
A-
A+
Scorrere
A -> La
Video
Accordi
Traduzione
	 
La canción está dedicada a Chavela Vargas.
[Riff]
F#m B7 F#m B7 F#m
e|-2--5--4--7-|--9---9--7--5--4--2-|-2-5-4-7--9---9--2-|

b|------------|--------------------|-------------------|

g|-2--6--4--8-|--10--10-8--6--4--2-|-2-6-4-8--10--10-2-|

D|------------|--------------------|-------------------|

A|------------|--------------------|-------------------|

E|------------|--------------------|-------------------|

[Intro]
F#m - B7 - F#m - B7 - F#m
[Versetto]
F#m C#7
No me hubieras dejado esa noche,
C#7 F#m
porque esa misma noche encontré un amor.
F#m C#7
No me hubieras dejado esa noche,
C#7 F#m
porque esa misma noche encontré un amor.
[Coro]
Bm F#m C#7 F#m
Parecía que estaba esperando, tu momento de partir,
Bm F#m C#7 F#m
parecía haber observado, mis momentos junto a ti.
[Versetto]
F#m C#7
No me hubieras dejado esa noche,
C#7 F#m
porque esa misma noche encontré un amor
F#m C#7
No me hubieras dejado esa noche,
C#7 F#m
porque esa misma noche encontré un amor.
[Coro]
B#m F#m C#7 F#m
Me abrazó el instante mismo, que tú me dijiste adiós,
B#m F#m C#7 F#
y no fue una gran tristeza, fue como ir, de menor a mayor.
[Post-Coro]
F# C#7 B F#
Tu regreso había esperado, mas te veía muy feliz,
B#m F#m C#7 F#m
en los brazos de tu amada, que olvidaste junto a mí.
F# C#7 B F#
Mas ahora que recuerdas, a mis brazos vuelve ya,
B#m F#m C#7
seré por siempre tu amante, tu novia, la soledad.
[Riff]
F#m B7 F#m B7 F#m
e|-2--5--4--7-|--9---9--7--5--4--2-|-2-5-4-7--9---9--2-|

b|------------|--------------------|-------------------|

g|-2--6--4--8-|--10--10-8--6--4--2-|-2-6-4-8--10--10-2-|

D|------------|--------------------|-------------------|

A|------------|--------------------|-------------------|

E|------------|--------------------|-------------------|

F#m - B7 - F#m - B7 - F#m
[Coro]
B#m F#m C#7 F#m
Y si alguna vez regresas, con aquella que te amó,
B#m F#m C#7 F#m
sabes no será lo mismo, pues también me conoció.
[Versetto]
F#m C#7
No me hubieras dejado esa noche,
C#7 F#m
porque esa misma noche encontré un amor
F#m C#7
Mi soledad (no me hubieras dejado esa noche)
C#7 F#m
Siempre he pertenecido a ti (no me hubieras dejado...)
[Outro]
F#m C#7
Mi soledad (no me hubieras dejado esa noche)
C#7 F#m
Siempre he pertenecido a ti (no me hubieras dejado...)
Questo sito utilizza i cookie