La Llorona

Per aggiungere un elenco personale è necessario effettuare il
o

Chavela Vargas

Versione
studio
pubblicato da
rafah
Tono
A-
A+
Scorrere
A -> La
Video
Accordi
Traduzione
	 
[Intro]
6 ------------------------------------------------------------------------------------------

5 ------------------------------------------------------------------------------------------

4 ---------------------------------------------------------------------------------6--5--6--

3 ----0----5--4--5-----------------------5--3--2--3--5--------------5--3-------------3--5---

2 --------------------3--4------6--4--3-------------------2--6--4--3------------------------

1 -----------------------------3------------------------------------------------------------

6 ---------------------------------------------------||

5 ---------------------------------------------------||

4 ---------------------------------5-----------------||

3 --5---5--4--5--------4--------------------------5--||

2 -------3----------3----3-------------------6--4--3-||

1 -----------------------------------------3--4--3---||

[Intro]
[Versetto]
Cm Fm
Todos me dicen el negro, llorona
Cm G
negro pero cariñoso [x2]
Cm Bb
Yo soy como el chile verde, llorona
G# G7
picante pero sabroso [x2]
[Versetto]
Cm Fm
Ay de mí, llorona, llorona,
Cm G
llorona llévame al rio. [x2]
Cm Bb
Tápame con tu rebozo llorona
G# G7
porque me muero de frío. [x2]
[Intro]
6 ------------------------------------------------------------------------------------------

5 ------------------------------------------------------------------------------------------

4 ---------------------------------------------------------------------------------6--5--6--

3 ----0----5--4--5-----------------------5--3--2--3--5--------------5--3-------------3--5---

2 --------------------3--4------6--4--3-------------------2--6--4--3------------------------

1 -----------------------------3------------------------------------------------------------

6 ---------------------------------------------------||

5 ---------------------------------------------------||

4 ---------------------------------5-----------------||

3 --5---5--4--5--------4--------------------------5--||

2 -------3----------3----3-------------------6--4--3-||

1 -----------------------------------------3--4--3---||

[Versetto]
Cm Fm
No sé que tienen las flores llorona
Cm G
las flores del campo santo [x2]
Cm Bb
Que cuando las mueve el viento llorona
G# G7
parece que están llorando [x2]
[Versetto]
Cm Fm
Ay de mí llorona, llorona,
Cm G
llorona llévame al río [x2]
Cm Bb
Tapame con tu rebozo llorona
G# G7
porque me muero de frío. [x2]
[Versetto]
Cm Fm
La luna es una mujer, llorona
Cm G
y por eso el sol de España [x2]
Cm Bb
Anda que bebe los montes, llorona
G# G7
porque la luna lo engaña [x2]
[Versetto]
Cm Fm
Ay de mi llorona, llorona,
Cm G
llorona de un campo lirio [x2]
Cm Bb
El que no sabe de amores llorona
G# G7
no sabe lo que es martirio [x2]
[Intro]
6 ------------------------------------------------------------------------------------------

5 ------------------------------------------------------------------------------------------

4 ---------------------------------------------------------------------------------6--5--6--

3 ----0----5--4--5-----------------------5--3--2--3--5--------------5--3-------------3--5---

2 --------------------3--4------6--4--3-------------------2--6--4--3------------------------

1 -----------------------------3------------------------------------------------------------

6 ---------------------------------------------------||

5 ---------------------------------------------------||

4 ---------------------------------5-----------------||

3 --5---5--4--5--------4--------------------------5--||

2 -------3----------3----3-------------------6--4--3-||

1 -----------------------------------------3--4--3---||

[Versetto]
Cm Fm
Yo te soñaba dormida llorona,
Cm G
te estabas quieta [x2]
Cm Bb
Pero en llegando el olvido llorona
G# G7
soñé que estabas despierta [x2]
[Versetto]
Cm Fm
Si porque te quiero quieres llorona
Cm G
quieres que te quiera más [x2]
Cm Bb
Si ya te he dado la vida llorona
G# G7
¿Qué más quieres? ¡Quieres más!
Questo sito utilizza i cookie