Burbujas de amor

Per aggiungere un elenco personale è necessario effettuare il
o

Grupo 4.40

Versione
studio
pubblicato da
rafah
Tono
A-
A+
Scorrere
A -> La
Video
Accordi
Traduzione
	 
[Intro]
C G Dm7 F
[Tab]
E|------------------------------------------|

B|-6-6-6-8-8/10-10-8---8--------------------|

G|-------------------7----------------------|

D|------------------------------------------|

A|------------------------------------------|

E|------------------------------------------|

E|-------10-8-7----7-8~---------------------|

B|-8-6-5--------10--------------------------|

G|------------------------------------------|

D|------------------------------------------|

A|------------------------------------------|

E|------------------------------------------|

[Versetto]
C
Tengo un corazón
G
Mutilado de esperanza y de razón
Dm7 F
Tengo un corazón
G
Que madruga adonde quiera

¡Ayayayay!
[Versetto]
C
Y ese corazón
G
Se desnuda de impaciencia ante tu voz
Dm7 F
Pobre corazón
G
Que no atrapa su cordura
[Coro]
C
Quisiera ser un pez
G
Para tocar mi nariz en tu pecera
Y hacer burbujas de amor
Dm7
Por donde quiera
F G
¡Oh! pasar la noche en vela
F G
Mojado en ti
C
Un pez
G
Para bordar de corales tu cintura
Y hacer siluetas de amor
Dm7
Bajo la luna
F G
¡Oh! saciar esta locura
F G
Mojado en ti
[Strumentale]
C G Dm7 F

G F G7

[Versetto]
C
Canta corazón
G
Con un ancla imprescindible de ilusión
Dm7 F
Sueña corazón
G
No te nubles de amargura
¡Ayayayay!
[Versetto]
C
Y ese corazón
G
Se desnuda de impaciencia ante tu voz
Dm7 F
Pobre corazón
G
Que no atrapa su cordura
[Coro]
C
Quisiera ser un pez
G
Para tocar mi nariz en tu pecera
Y hacer burbujas de amor
Dm7
Por donde quiera
F G
¡Oh! pasar la noche en vela
F G
Mojado en ti
C
Un pez
G
Para bordar de corales tu cintura
Y hacer siluetas de amor
Dm7
Bajo la luna
F G
¡Oh! saciar esta locura
F G Ab
Mojado en ti
[Ponte]
Bb7 Gm
Una noche para unirnos
Cm Bb Ab
Hasta el fin
Bb7 Gm
Cara a cara, beso a beso
Cm Gm Fm
Y vivir
Bb7 C
Por siempre mojado en ti
[Strumentale]
G Dm7 F G F G
[Coro]
C
Quisiera ser un pez
G
Para tocar mi nariz en tu pecera
Y hacer burbujas de amor
Dm7
Por donde quiera
F G
¡Oh! pasar la noche en vela
F G
Mojado en ti
C
Un pez
G
Para bordar de corales tu cintura
Y hacer siluetas de amor
Dm7
Bajo la luna
F G
¡Oh! saciar esta locura
F G C
Mojado en ti
G
Para tocar mi nariz en tu pecera
Y hacer burbujas de amor
Dm7
Por donde quiera
F G
¡Oh! pasar la noche en vela
F G
Mojado en ti
C
Un pez
G
Para bordar de corales tu cintura
Dm7
Bajo la luna
F G
¡Oh! saciar esta locura
F G
Mojado en ti
[Outro]
Ab Bb C
Questo sito utilizza i cookie