To Be So Lonely

Per aggiungere un elenco personale è necessario effettuare il
o

Harry Styles

Versione
studio
pubblicato da
inthisworld
Tono
A-
A+
Scorrere
A -> La
Video
Accordi
Traduzione
	 
[Intro]
e|----------------|----------------|10--x-----------|----------------|10--x-----------|

B|--------3-5-3-5/|8---------------|8---x---3-5-3-5/|8---------------|8---x-----------|

G|--------4-5-4-5/|9---------------|9---x---4-5-4-5/|9---------------|7---x-----------|

D|----------------|----------------|----------------|----------------|----------------|

A|----------------|----------------|----------------|----------------|----------------|

E|----------------|----------------|----------------|----------------|----------------|

1 + 2 + 3 + 4 +

[Tab]
C

e|----------------|10--x-----------|----------------|10--x-----------|

B|8---------------|8---x---3-5-3-5-|8---------------|8---x---3-5-3-5-|

G|9---------------|9---x---4-5-4-5-|9---------------|9---x---4-5-4-5-|

D|----------------|----------------|----------------|----------------|

A|----------------|----------------|----------------|----------------|

E|----------------|----------------|----------------|----------------|

Am

e|----------------|----x-----------|----------------|----x-----------|

B|1---------------|5---x---3-5-3-5-|1---------------|5---x---3-5-3-5-|

G|2---------------|5---x---4-5-4-5-|2---------------|5---x---4-5-4-5-|

D|----------------|----------------|----------------|----------------|

A|----------------|----------------|----------------|----------------|

E|----------------|----------------|----------------|----------------|

[Versetto]
C
Don't blame me for falling
C
I was just a little boy
Am
Don’t blame the drunk caller
Am
Wasn't ready for it all
[Pre-Coro]
C
You can't blame me, darling
C
Not even a little bit, I was away
Am
I’m just an arrogant son of a bitch
Am (can also use F here if playing chords)
Who can't admit when he's sorry
[Coro]
Am G
Don't call me "baby" again, you've got your reasons
Em Fmaj7
I know that you're trying to be friends, I know you mean it
Am G Em
Don't call me "baby" again, it's hard for me to go home
Fmaj7 C
Be so lonely
[Versetto]
C
I just hope you see me in a little better light
C
Do you think it’s easy being of the jealous kind?
Am
’Cause I miss the shape of your lips
Am
Your wit, it's just a trick
Am
This is it, so I’m sorry
[Coro]
Am G
Don't call me "baby" again, you've got your reasons
Em Fmaj7
I know that you're trying to be friends, I know you mean it
Am G Em
Don't call me "baby" again, it's hard for me to go home
Fmaj7 C
Be so lonely
[Post-Coro]
Am G
To be so lonely, to be so
Em Fmaj7
To be so lonely
Am G
To be so lonely, to be so
Em Fmaj7
To be so lonely
[Ponte]
Am C D5 Am
Fmaj7
And I'm just an arrogant son of a bitch
Who can't admit when he's sorry
[Coro]
Am G
Don't call me "baby" again, you've got your reasons
Em Fmaj7
I know that you're trying to be friends, I know you mean it
Am G Em
Don't call me "baby" again, it's hard for me to go home
Fmaj7
Be so lonely
[Post-Coro]
Am G
To be so lonely, to be so
Em Fmaj7
To be so lonely
Am G
To be so lonely, to be so
Em Fmaj7
To be so lonely
Questo sito utilizza i cookie