Me haces bien

Per aggiungere un elenco personale è necessario effettuare il
o

Jorge Drexler

Versione
studio
pubblicato da
iri
Tono
A-
A+
Scorrere
A -> La
Video
Accordi
Traduzione
	 
[Riff]
A Amaj7 A/G D/F# E A
E|------------------------------------------| --------------------------------|

B|------------------------------------------| --------------------------------|

G|------------------------------------------| --------------------------------|

D|------------------------------------------| --------------------------------|

A|-----2-2h4-4-4-2--0--------2-2h4-4-4-2-0h2| -2h4-2-2---2h4-2-2---0h2-0-0----|

E|-0-5-------------------0-5----------------|--------------------------------|

[Intro]
[A - Amaj7 - A/G - D/F# - E - A]
[Versetto]
A Amaj7 A7
Para contarte, canto , quiero que sepas cuanto
D/F# E A
Me haces bien, me haces bien, me haces bien
A Amaj7 A7
Te quiero de mil modos, Te quiero sobre todo
D/F# E A Asus4 A
[Coro]
Bm7 C#7 F#m
Basta ver, el reflejo de tus ojos en los míos
Bsus4 B7 Bm E
Como se lleva el frío, para entender
[Versetto]
A Amaj7 A7
Que el corazón no miente, que afortunada mente
D/F# E A
Me haces bien, me haces bien, me haces bien.
[Solo]

E|---------------------------------------| --------------------------------------|

B|---------------------------------------| --------------------------------------|

G|---------------------------------------| --------------------------------------|

D|-6h7-7-7-7-7-7-6-6-6-6-7-6-4-4-4-4-6-4-| -------4h5-5-4------------------------|

A|---------------------------------------| -7-7-7-----------5-5-5--4-4-4--2-2--0-|

E|---------------------------------------|--------------------------------------|

[Versetto]
A Amaj7 A7
Para contarte, canto, quiero que sepas cuanto
D/F# E A
Me haces bien, me haces bien, me haces bien
[Coro]
Bm7 C#7 F#m
Basta ver, el reflejo de tus ojos en los míos
Bsus4 B7
Como se lleva el frío,
[Post-Coro]
Bm E A B
Me haces bien, me haces bien, me haces bien
Bm E A B
Me haces bien, me haces bien, me haces bien
Bm E
Me haces bien, me haces bien.
[Riff]
[A - Amaj7 - A/G - D/F# - E - A]
E|------------------------------------------| -----------------------------|

B|------------------------------------------| -----------------------------|

G|------------------------------------------| -----------------------------|

D|------------------------------------------| -----------------------------|

A|-----2-2h4-4-4-2--0--------2-2h4-4-4-2-0h2| -2h4-2-2---2h4-2-2---0h2-0-0-|

E|-0-5-------------------0-5----------------|-----------------------------|

Questo sito utilizza i cookie