Hard Luck Woman

Per aggiungere un elenco personale è necessario effettuare il
o

Kiss

Versione
studio
pubblicato da
rafah
Tono
A-
A+
Scorrere
A -> La
Video
[Accordatura: Eb Ab Db Gb Bb Eb (-1/2 Tono)]
Accordi
Traduzione
	 
[Intro]
[Versetto]
Dm
If never I’d met you
C
I’d never have to see you cry
Dm Em F G C
If not for the first hello, I’d never have to say goodbye
[Versetto]
Dm
If never I’d held you
C
My feelings would never show
Dm Em F G C
It’s time I start walking, Girl there’s so much that you’ll never know
[Pre-Ritornello]
I keep telling you
[Ritornello]
F Em Dm
Hard luck woman
F Em Dm
You ain't a hard luck woman
C Dm
Rags, the sailor’s only daughter
F
A child of the water
G C
Too proud to be a Queen
Dm F G
C Dm
Rags, I really love you I can’t forget about you
F Em Dm
You’ll be a hard luck woman
F G C
Baby ‘til you find your man
[Versetto]
Dm
Before I go let me kiss you
C
And wipe the tears from your eye
Dm Em
I don’t want to hurt you, girl
F G C
You know that I could never lie
[Pre-Ritornello]
I keep telling you
[Ritornello]
F Em Dm
Hard luck woman
F Em Dm
You ain't a hard luck woman
F E Dm
You'll be a hard luck woman
F G C
Baby ‘til you find your man
Dm F G
C Dm
Rags, the sailor’s only daughter
F
A child of the water
G C
Too proud to be a Queen
Dm F G

C Dm
Rags, I really love you I can’t forget about you
F Em Dm
You’ll be a hard luck woman
F G C
Baby ‘til you find your man
[Outro]
Dm C
bags...Bye Bye Bye, Baby" stuff
[Tab]
e|---------------------------------------------------------------------------|

B|---------------------------------------------------------------------------|

G|---------------------------------------------------------------------------|

D|----------------------------7-5--------------------------------------------|

A|--------3-5/7-5--5-5--5-5-------7-5-3--3-3--3-3----------3-5/7--5--5/7-----|

E|--0--5---------------------------------------------0--5--------------------|

e|-----------------13p12---------12------------------------------------------|

B|------------------------13--------13---------------------------------------|

G|---------------------------12----------------------------------------------|

D|---------------------------------------------------------------------------|

A|--7/8--8/10----------------------------------------------------------------|

E|---------------------------------------------------------------------------|

Questo sito utilizza i cookie