Pais e Filhos

Per aggiungere un elenco personale è necessario effettuare il
o

Legião Urbana

Versione
studio
pubblicato da
rafah
Tono
A-
A+
Scorrere
A -> La
Video
Accordi
Traduzione
	 
[Intro]
C D G
[Riff]
e|----------------------------------

B|-1-3-5----13-10-12-------12\------

G|-0-0-0-0---0--0--0--0-----0\------

D|----------------------------------

A|-0-2-3----12-8--10----10----------

E|----------------------------------

[Coro]
C D
Estátuas e cofres
G
E paredes pintadas
C D G
Ninguém sabe o que aconteceu
C D G C
Ela se jogou da janela do quinto andar
D G
Nada é fácil de entender
[Coro]
F C/E C Bm Am
Dorme agora uhuu huhuhu uhuuuu
D
É só o vento lá fora
[Versetto]
C D
Quero colo
G
Vou fugir de casa
C D G
Posso dormir aqui com vocês?
C D
Estou com medo
G
Tive um pesadelo
C D G
Só vou voltar depois das três
[Strumentale]
C D G
[Riff]
e|----------------------------------

B|-1-3-5----13-10-12-------12\------

G|-0-0-0-0---0--0--0--0-----0\------

D|----------------------------------

A|-0-2-3----12-8--10----10----------

E|----------------------------------

[Coro]
F C/E C Bm Am
Meu filho vai ter nome de santo
D D4 D
Quero o nome mais bonito
[Versetto]
G C Em C
É preciso amar as pessoas como se não houvesse amanhã
G C
Porque se você parar pra pensar
Em C
Na verdade não há
[Versetto]
D G C D G
Me diz: porque que o céu é azul?
C D G
Me explica a grande fúria do mundo
C D G C D G
São meus filhos que tomam conta de mim
C D G C D G
Eu moro com a minha mãe mas o meu pai vem me visitar
C D G
Eu moro na rua não tenho ninguém
C D G
Eu moro em qualquer lugar
C D G C
Já morei em tanta casa que nem me lembro mais
D F C/E C Bm Am D
Eu moro com meus pais
[Versetto]
G C Em C
É preciso amar as pessoas como se não houvesse amanhã
G C
Porque se você parar pra pensar
Em C
Na verdade não há
G C Em C
Sou uma gota d'água, sou um grão de areia
G C
Você diz que seus pais não entendem
Em C
Mas você não entende seus pais
D G C D G
Você culpa seus pais por tudo, isso é absurdo
C D G
São crian‡as como você
C D G
O que você vai ser quando você crescer?
Questo sito utilizza i cookie