La última prosa

Per aggiungere un elenco personale è necessario effettuare il
o

Lisandro Aristimuño

Versione
studio
pubblicato da
iri
Tono
A-
A+
Scorrere
A -> La
Video
Accordi
Traduzione
	 
[Riff]
E F# G#m F#/D#

e|---------------|-----------------|-----------------|------------------- |

B|---------------|-----------------|-----------------|------------------- |

G|-------1--1----|--------3--3-----|-------4--4------|----------3--3----- |

D|----2--------2-|------4-------4--|-----6------6----|------4----------4--|

A|-2-------------|--2/4------------|--6--------------|-4/6--------------- |

E|---------------|-----------------|-----------------|------------------- |

x6

El Riff inicial se mantiene sobre la estrofa
[Versetto]
E F# G#m F#/D#
No sé si esperarte de nuevo
C#m F# G#m - G#m
por una mañana o dos
E F# G#m F#/D#
el jugo en mi sombra es ardiente,
C#m F# G#m - G#m
la buena noticia sos vos... sos vos
[Riff]
E F# G#m F#/D#

e|---------------|-----------------|-----------------|------------------- |

B|---------------|-----------------|-----------------|------------------- |

G|-------1--1----|--------3--3-----|-------4--4------|----------3--3----- |

D|----2--------2-|------4-------4--|-----6------6----|------4----------4--|

A|-2-------------|--2/4------------|--6--------------|-4/6--------------- |

E|---------------|-----------------|-----------------|------------------- |

x2

[Coro]
E F# G#m F#/D#
La noche se agota de verme
C#m F# G#m - G#m
quizá es mejor descansar
E F# G#m F#/D#
afuera hace frío y es tarde
C#m F# G#m - G#m
el hoy del reloj se durmió...se fue
[Riff]
E F# G#m F#/D#

e|---------------|-----------------|-----------------|------------------- |

B|---------------|-----------------|-----------------|------------------- |

G|-------1--1----|--------3--3-----|-------4--4------|----------3--3----- |

D|----2--------2-|------4-------4--|-----6------6----|------4----------4--|

A|-2-------------|--2/4------------|--6--------------|-4/6--------------- |

E|---------------|-----------------|-----------------|------------------- |

x2

[Coro]
B F#
Y vendrás con una sonrisa
E
envuelta en la brisa
B F#
Y me verás inútil demente
E
inconscientemente
B F#
Yo pisaré tu cama de fosas,
E
y no mariposas...(usadas)...
B F#
Resolveré, la última prosa
E G#m
resuelve mis cosas... en soledad...
[Riff]
1|-4-6-7-9-11----|

2|---------------|

3|---------------|

4|---------------|

5|---------------|

6|---------------|

G#m
Questo sito utilizza i cookie