Seguir viviendo sin tu amor

Per aggiungere un elenco personale è necessario effettuare il
o

Luis Alberto Spinetta

Versione
studio
pubblicato da
rafah
Tono
A-
A+
Scorrere
A -> La
Video
Accordi
Traduzione
	 
[Riff]
||----9-10------------||----9-10-----------||

||--7------10-8-10----||--7------10-8-7----||

||o------------------o||o-----------------o||

||o------------------o||o-----------------o||

||--------------------||-------------------||

||--------------------||-------------------||


||----9-10------------||-------------------||

||--7------10-8-12----||--7-8-10-8-7-8h10--||

||o------------------o||o-----------------o||

||o------------------o||o-----------------o||

||--------------------||-------------------||

||--------------------||-------------------||

[Versetto]
D D2 D
Si a tu corazón yo llego igual,
D D2 Bm B2 Bm
todo siempre se podrá elegir.
Bm B2 A/G G A/G
No me escribas la pared.
G Em7 A
Sólo quiero estar entre tu piel.
[Versetto]
D D2 D
Y si acaso no brillara el sol,
D2 Bm B2 Bm
y quedara yo atrapado aquí,
B2 A/G G A/G
no vería la razón
G Em7 A
de seguir viviendo sin tu amor.
[Coro]
F#
Y hoy que enloquecido vuelvo
Bm
buscando tu querer,
Em7
no queda más que el viento,
A/G A
no queda mas que el viento.
[Versetto]
D D2 D
Y si acaso no brillara el sol,
D2 Bm B2 Bm
y quedara yo atrapado aquí,
B2 A/G G A/G
no vería la razón
G Em7 A
de seguir viviendo sin tu amor.
[Riff]
||----9-10------------||----9-10-----------||

||--7------10-8-10----||--7------10-8-7----||

||o------------------o||o-----------------o||

||o------------------o||o-----------------o||

||--------------------||-------------------||

||--------------------||-------------------||

||----9-10------------||-------------------||

||--7------10-8-12----||--7-8-10-8-7-8h10--||

||o------------------o||o-----------------o||

||o------------------o||o-----------------o||

||--------------------||-------------------||

||--------------------||-------------------||

[Coro]
F#
Y hoy que enloquecido vuelvo
Bm
buscando tu querer,
Em7
no queda más que el viento,
A/G A
no queda mas que el viento.
[Versetto]
D D2 D
Y si acaso no brillara el sol,
D2 Bm B2 Bm
y quedara yo atrapado aquí,
B2 A/G G A/G
no vería la razón
G Em7 A
de seguir viviendo sin tu amor.
Questo sito utilizza i cookie