Voto Latino

+ Nuovo Elenco

Molotov

Versione
studio
pubblicato da
iri
Tono
A-
A+
Scorrere
A -> La
Video
Accordi
Traduzione
	 
[Intro]
G C G C
e|-----------------|---------|-----------------|-----------|

B|-----------------|---------|-----------------|-----------|

G|-----------------|----3----|-----------------|-5-5-5-3---|

D|--------5--------|-5-----5-|--------5--------|---------5-|

A|-----5-----5---3-|---------|-----5-----5---3-|-----------|

E|-33--------------|---------|-33--------------|-----------|

[Versetto]
G
You start to run yeah that figures
C
´cause I pulled my triggers
G C
On you brotherkilla man
G
I´ll kick your ass yo mismo
C
Por supporting el racismo
G
I´ll blow your head hasta la vista
C
Por ser un vato racista
G C
Que sentirías se muere en tus brazos
G C
A brother who got beaten up
G C
By macanazos, asesinos yeah, es lo que son
G C
Es la única raza que odio de corazón
[Coro]
E7
Voto latino
D7
De entre las masas
E7
Voto latino
D7
Para la igualdad de razas
E7
Voto latino
D7
De entre las masas es un
E7
Voto latino
D7
Para la igualdad de razas
[Versetto]
G C
Pinta tu madre patria de colores
G
So you can´t tell the difference
C
Entre los others
G C
Aquí en la banda soy yo el americano
G C
Los tres mexicanos me tratan como a un hermano
G C
Que sentirías si cae junto a ti
G 9
Una hermana que canta una Rebel Melody
G C
Asesinos yeah, es lo que son
G C
Es la única raza que odio de corazón
[Coro]
E7
Voto latino
D7
De entre las masas
E7
Voto latino
D7
Para la igualdad de razas
E7
Voto latino
D7
De entre las masas es un
E7
Voto latino
D7
Para la igualdad de razas
[Solo]
e|-----------------|------------|------------------|--------------|

b|-----------------|------------|------------------|--------------|

g|-----------------|----------2-|-0-0h2p0--------0-|--------------|

D|-----------------|----5-0-----|----------2-3-2---|-2-0------3h5-|

A|---------0-0-2-2-|-3------3---|------------------|------3-5-----|

E|-3-3-3-3---------|------------|------------------|--------------|


e|-----------|-----------|-----------|-3~~-------|-3/23----------|

b|-----------|-----------|-----------|-3~~-------|-3/23----------|

g|-----------|-------0-5-|-3-2-3-2---|-3~~-------|-3/23----------|

D|-3-2h3-2-0-|----3------|---------0-|---------3-|--------5-3----|

A|-----------|-3---------|-----------|-----3-5---|-------------5-|

E|-----------|-----------|-----------|-----------|---------------|


e|-3~-------------|--------------------|------------|------------------|

b|-5~-------------|--------------------|------------|------------------|

g|-5~-------------|--------------------|----------2-|-0-0h2p0--------0-|

D|-5~-------------|--------------------|----5-0-----|----------2-3-2---|

A|-3~---------3-3-|-3----------0-0-2-2-|-3------3---|------------------|

E|-----0-3-3------|----3-3-3-3---------|------------|------------------|


e|--------------|-----------|---------------|---------------|

b|--------------|-----------|---------------|---------------|

g|--------------|-----------|---------------|---------------|

D|-2-0------3h5-|-3-2h3-2-0-|---------------|---------------|

A|------3-5-----|-----------|-3---------3-3-|-3-3-3-2-2-0-0-|

E|--------------|-----------|----0-3-3------|---------------|


[Coro]
E7
Voto latino
D7
De entre las masas
E7
Voto latino
D7
Para la igualdad de razas
E7
Voto latino
D7
De entre las masas es un
E7
Voto latino
D7
Para la igualdad de razas
E7 D7
Voto latino
E7 D7
Voto latino
E7 D7
Voto latino
E7
Voto latino
D7 E7 E7 E7
Para la igualdad de razas fui fuiiiii
[Tab]
e|--------------------------|----------|

b|--------------------------|----------|

g|--------------------------|-9--9--9--|

D|---------------------7----|-9--9--9--|

A|-7---------7--8--10----7--|-7--7--7--|

E|----8--10-----------------|----------|

Questo sito utilizza i cookie