All Apologies

+ Nuovo Elenco

Nirvana

Versione
studio
pubblicato da
iri
Tono
A-
A+
Scorrere
A -> La
Video
Accordi
Traduzione
	 
Afinar un 1/2 tono abajo la guitarra
[Riff]
D
e|-------------------------------|----------------------------------|

b|-------------------------------|----------------------------------|

g|-------------------------------|----------------------------------|

D|-------------------------------|--------------10/12--12--10--9----|

A|-9--9--10--9--10/12--12--10--9-|-9--9--10--9----------------------|

D|-------------------------------|----------------------------------|

D
e|-------------------------------|----------------------------------|

b|-------------------------------|----------------------------------|

g|-------------------------------|---------------11--11--9----------|

D|-------------------------------|--------------------------12------|

A|-9--9--10--9--10/12--12--10--9-|-9--9--10--9----------------------|

D|-------------------------------|----------------------------------| Todo x2

[Versetto]
D
What else should I be; all apologies
D
What else could I say; everyone is gay
D
What else could I write; I don't have a right
D
What else should I be; all apologies.
[Coro]
G
In the sun, in the sun I feel as one
G A
In the sun, in the sun I'm married
A
Married,married
[Versetto]
D
I wish I was like you; easily amused
D
Find my nest of salt; everything's my fault
D
I'll take all the blame; aqua sea foam shame
D
Sunburn with freezer burn
D
Choking on the ashes of her enemies
[Versetto]
G
In the sun, in the sun I feel as one
G A
In the sun, in the sun I'm married
A
married
A A
Married, Buried (yah, yah, yah, yeah)
[Outro]
D
All in all is all we are
D
All in all is all we are
D
All in all is all we are
D
All in all is all we are
Questo sito utilizza i cookie