Cruz de Olvido

Per aggiungere un elenco personale è necessario effettuare il
o

No Te Va Gustar

Versione
acustica
pubblicato da
iri
Tono
A-
A+
Scorrere
A -> La
Video
Accordi
Traduzione
	 
[Riff]
D A D

e|-5--7--5--4--5--|-9--9--9--9--9--9--|-7-7---5-7-5-7-5-|

b|-7--8--7--6--7--|-10-10-10-10-10-10-|-8-8---7-8-7-8-7-|

g|----------------|-------------------|-----------------|

d|----------------|-------------------|-----------------|

a|----------------|-------------------|-----------------|

E|----------------|-------------------|-----------------|

D A A D

e|-5--5--5--|-5--4--3--|-5--5--5--|-5--4--3--|

b|-7--7--7--|-7--6--5--|-7--7--7--|-7--6--5--|

g|----------|----------|----------|----------|

d|----------|----------|----------|----------|

a|----------|----------|----------|----------|

E|----------|----------|----------|----------|

D A D

e|-2--5--5--|-7--5--3--|-2----|

b|-3--5--7--|-8--7--5--|-3----|

g|----------|----------|------|

d|----------|----------|------|

a|----------|----------|------|

E|----------|----------|------|

[Versetto]
D
Con el atardecer
A7
Me iré de aquí
D
Me iré sin ti
D
Me alejaré de aquí
D
Con un dolor
Fmb7/b5 A7
Dentro de mí
A7
Te juro, corazón
A7 G
Que no es falta de amor
A7 D
Pero es mejor así.
A7
Un día comprenderás
Em A
Que lo hice por tu bien
A7 D
Que todo fue por ti
Fmb7/b5 A7
La barca en que me iré
A7 D
Lleva una cruz de olvido
B7 Em
Lleva una cruz de amor
A Em
Y en esa cruz sin ti
A7 D
Me moriré de hastío
Fmb7/b5 A7 Em A
La barca en que me iré
A A7 D
Lleva una cruz de olvido
B7 Em
Lleva una cruz de amor
A7 Em
Y en esa cruz sin ti
G A7 D A7 D
Me moriré, de hastío.
Questo sito utilizza i cookie