Chacarera Del Exilio

+ Nuovo Elenco

Raly Barrionuevo

Versione
studio
pubblicato da
iri
Tono
A-
A+
Scorrere
A -> La
Video
Accordi
Traduzione
	 
[Intro]
e|-----7--9-----12--10--9--7-------------|

b|---------------------------------------|

g|---7------9---12--10--9--7-------------|

D|---------------------------------------|x2

A|---------------------------------------|

E|---------------------------------------|

e|-----7---10----12----6--7------------|

b|-------------------------------------|

g|---7---11---12-------6--7------------|

D|-------------------------------------|

A|-------------------------------------|

E|-------------------------------------|

[Intro]
Bm-F#7 - Bm7


[Versetto]
Bm F#7 Bm
Vuelve a cantar el coyuyo
Bm F#7 Bm
despues de un año sin huella
Em A7 D
vuelve a renacer el grito
F# F#7 Bm
marrón de la chacarera.
[Ponte]
Bm-F#7 - Bm7
[Versetto]
Bm F#7 Bm
Es el hombre americano
Bm F#7 Bm
corazón en la batalla
Em A7 D
rebelion y abrazo fuerte
F# F#7 Bm
de parche y de madrugada.
[Ponte]
Bm-F#7 - Bm7
[Versetto]
Bm
Soy latino de la danza
B7
de GUEVARA y dictadores
Em
de quebracho y cordillera
D/F# F#7 Bm
de exiliados y cantores
[Coro]
Bm F#7 Bm
Chacarera del exilio
Bm F#7 Bm
trashumante es mi destino
Em A7 D
y esta copla que me lleva
D/F# F#7 Bm
descalzo por los caminos.
[Ponte]
Bm-F#7 - Bm7
[Versetto]
Bm F#7 Bm
Huele a pueblo el caminante
Bm F#7 Bm
que ha desgranado el camino
Em A7 D
sabe a lucha la palabra
D/F# F#7 Bm
que no conoce el olvido.
[Ponte]
Bm-F#7 - Bm7
[Versetto]
Bm F#7 Bm
Tengo una mujer de fuego
Bm F#7 Bm
navegando en mis nostalgias
Em A7 D
tengo una mujer de Greda
D/F# F#7 Bm
me despierta en las mañanas
[Versetto]
Cinco siglos de silencio
B7
genocidio de una raza
Em
y es la pachamama lumbre
D/F# F#7 Bm
que enciende nuestra esperanza.
Questo sito utilizza i cookie