Ella dijo

Para adicionar a uma lista pessoal, você deve
ou

Estelares

Versão
estudio
publicado por
iri
Tom
A-
A+
Deslizar
A -> La
Video
Acordes
Tradução
	 
[Intro]
G Am

e|-----5/7-7-7-7-7-7-7---5/7--5-3-7--5-5-|

B|---------------------------------------|

G|-----5/7-7-7-7-7-7-7---5/7--5-4-7--5-5-|

D|---------------------------------------|

A|---------------------------------------|

E|---------------------------------------|

G Am
e|-----5/7-7-7-7-7-7-7---6/7--5-3-6/7--5-5-|

B|-----------------------7/8--7-5-7/8--7-7-|

G|-----5/7-7-7-7-7-7-7---------------------|

D|-----------------------------------------|

A|-----------------------------------------|

E|-----------------------------------------|


[Intro]
| G | Am |x2
[Estrofe]
G
Y todo en un minuto
G
Yo estaba en la cocina
Am
Me abrazo por la espalda
Am
Y me dijo al oído
Em
Que le encanta ir a la cama conmigo
D D7
Pero no quiere nada más.
[Estrofe]
G
Encendio un cigarro
G
y me miro a los ojos
Am
abroché su camisa
Am
y se cruzó de piernas
Em
y le encanta ir a la cama conmigo
D
pero no quiere nada nada más.
[Refrão]
G
Ella dijo y yo dije
Am
no eres mi amor
G
Ella dijo, y yo dije
Am G
no eres mi amor
[Estrofe]
G
Ya eran las doce
G
debía irme de viaje
Am
que suerte con la gira
Am
que luego iba a llamarme porque
Em
le encanta ir a la cama conmigo
D
pero no quiere nada más.
[Estrofe]
G
Me dijo yo te quiero
G
aquí está mi cariño
Am
ahora no me atrevo
Am
es que ya no somos niños
Em
aunque me encanta ir a la cama contigo
D
pero no quiero nada nada más.
[Refrão]
G
Ella dijo y yo dije
Am
no eres mi amor
G
Ella dijo, y yo dije
Am G
no eres mi amor
[Intro]
| G | Am |x2
[Estrofe]
G
Durmiendo en su casa
G
los jeans en el suelo
Am
mientras me abrazaba
Am
me dijo sonriendo Manuel
Em
me encanta ir a la cama contigo
D
pero no quiero nada nada más
[Refrão]
G
Ella dijo y yo dije
Am
no eres mi amor
G
Ella dijo, y yo dije
Am
no eres mi amor
[Refrão]
G
Ella dijo y yo dije
Am
no eres mi amor
G
Ella dijo, y yo dije
Am
no eres mi amor
[Outro]
G
Ella dijo y yo dije
Am
no eres mi amor
G
Ella dijo, y yo dije
Am
no eres mi amor
Este site utiliza cookies