Clarearme

Para adicionar a uma lista pessoal, você deve
ou

François Muleka

Versão
acústica
publicado por
iri
Tom
A-
A+
Deslizar
A -> La
Video
Acordes
	 
[Intro]
E7(9)(13) G#m7(9)
E|------------------------------------------|

B|-------------4-4-4-4--------------0-0-0-0-|

G|-------------6-6-6-6--------------3-3-3-3-|

D|-------------4-4-4-4--------------4-4-4-4-|

A|--6---4-6--------------6---4-6------------|

E|----7------0-------------7------4---------|

[Estrofe]
E7(9)(13) G#m7(9)
E é tudo tão bonito
E7(9)(13) G#m7(9)
Que eu nem sei mais respirar
E7(9)(13) G#m7(9) E7(9)(13)
Perdi o folego todo a quilômetros de cá dessa vez
E7(9)(13) B9 B7M/A# E
Antes de chegar, dessa vez doeu
[Tablatura]
e|-------------------------|

b|--0-2-2/4-2--0-2-2/4/2-0-|

g|--1-1-1/3-1--1-1-1/3/1-1-|

D|-------------------------|

A|-------------------------|

E|--0----------------------|

[Refrão]
E7(9)(13) G#m7(9)
E é tudo tão perfumado
E7(9)(13) G#m7(9)
Que eu nem sei mais me trocar
E7(9)(13) G#m7(9)
E é tudo tão teu que nos espelhos
E7(9)(13) E7(9)(13)
Eu sei já não sou eu
B9 B7M/A# E
Antes de me olhar, dessa vez doeu
[Refrão]
F# E7M
Dou minha cabeça em tuas mãos o pai
G#m11 G6/A# E
O meu sol dedicado a tí quando amanheço
C#m6(9)
E a vida continua
[Tablatura]
E|-----------------------|

B|-----9-7--5-4----------|

G|-----8-6--4-3--4/6-4/6-|

D|---------------4/6-4/6-|

A|-----------------------|

E|--0--------------------|

[Puente]
G#5(9) F#11 G6/A# C#m6(9)
Quantos mistérios você tem pra me manter no seu entorno?
G#5(9) F#11 G6/A# C#m6(9)
Desde a danças das mares até o louco cio dos bichos
G#5(9)
Quantas voltas mais vão me desobrigar
F#11 G6/A# C#m6(9)
Das obrigações das meninas
G6
Das obrigações
[Intro]
E7(9)(13) G#m7(9)
E|------------------------------------------|

B|-------------4-4-4-4--------------0-0-0-0-|

G|-------------6-6-6-6--------------3-3-3-3-|

D|-------------4-4-4-4--------------4-4-4-4-|

A|--6---4-6--------------6---4-6------------|

E|----7------0-------------7------4---------|

[Estrofe]
E7(9)(13) G#m7(9)
E é tudo tão bonito
E7(9)(13) G#m7(9)
Que eu nem sei mais respirar
E7(9)(13) G#m7(9) E7(9)(13)
Perdi o folego todo a quilômetros de cá dessa vez
E7(9)(13) B9 B7M/A# E
Antes de chegar, dessa vez doeu
[Tablatura]
E
E|-------------------------|

B|--0-2-2/4-2--0-2-2/4/2-0-|

G|--1-1-1/3-1--1-1-1/3/1-1-|

D|-------------------------|

A|-------------------------|

E|--0----------------------|

[Estrofe]
E7(9)(13) G#m7(9)
E é tudo tão perfumado
E7(9)(13) G#m7(9)
Que eu nem sei mais me trocar
E7(9)(13) G#m7(9)
E é tudo tão teu que nos espelhos
E7(9)(13) E7(9)(13)
Eu sei já não sou eu
B9 B7M/A# E
Antes de me olhar, dessa vez doeu
[Refrão]
F# E7M
Dou minha cabeça em tuas mãos o pai
G#m11 G6/A# E
O meu sol dedicado a tí quando amanheço
C#m6(9)
E a vida continua
[Tablatura]
E
E|-----------------------|

B|-----9-7--5-4----------|

G|-----8-6--4-3--4/6-4/6-|

D|---------------4/6-4/6-|

A|-----------------------|

E|--0--------------------|

[Puente]
G#5(9) F#11 G6/A# C#m6(9)
Quantos mistérios você tem pra me manter no seu entorno?
G#5(9) F#11 G6/A# C#m6(9)
Desde a danças das mares até o louco cio dos bichos
G#5(9)
Quantas voltas mais vão me desobrigar
F#11 G6/A# C#m6(9)
Das obrigações das meninas
G6
Das obrigações.
Este site utiliza cookies