It Will Come Back

Para adicionar a uma lista pessoal, você deve
ou

Hozier

Versão
estudio
publicado por
inthisworld
Tom
A-
A+
Deslizar
A -> La
Video
Acordes
Tradução
	 
Tuning: DADFAd
[Riff]
x4
d|----0------0--------0--------0--------0-----0---------0--------0----------|

A|----0------0--------0--------0--------0-----0---------0--------0----------|

F|-------------0--------------------------------0---------------------------|

D|-----------0--------------------------------0-----------------------------|

A|------0-3-----3/5-3-0-------------------0-3-----3/5-3-0-------------------|

D|--0-------------------/6-5-3-0-h3--p0-------------------/6-5-3-0-h3-------| (x4)

d|-----0------0--------0--------0--------0-----0---------0-------------------|

A|-----0------0--------0--------0--------0-----0---------0-------------------|

F|--------------0--------------------------------0---------------------------|

D|------------0--------------------------------0-----------------------------|

A|-------0-3-----3/5-3-0-------------------0-3-----3/5-3-0-------------------|

D|--p0-------------------/6-5-3-0-h3--p0------------------/7-6-5-3-/6-5-3-0--|

[Estrofe]
Dm Dm/C
You know better babe, you know better babe,
Gm
Than to look at it, look at it like that.
Dm Dm/C
You know better babe, you know better babe,
Gm
Than to talk to it, talk to it like that.
Bbmaj7 Asus4
Don't give it a hand, offer it a soul
Dm D
Honey, make this easy.
Bbmaj7 Asus4
Leave it to the land, this is what it knows
Dm D
Honey, that's how it sleeps.
[Refrão]
Bbmaj7 A7sus4
Don't let it in with with no intention to keep it
F
Jesus Christ, don't be kind to it.
Gm Dm
Honey don't feed it, it will come back.
[Riff]
[Estrofe]
Dm Dm/C
You know better babe, you know better babe,
Gm
Than to smile at me, smile at me like that
Dm Dm/C
You know better babe, you know better babe,
Gm
Than to hold me just, hold me just like that.
Bbmaj7 A7sus4
I know who I am when I'm alone
Dm D
Something else when I see you
Bbmaj7 A7sus4
You don't understand, you should never know
Dm D
How easy you are to need
[Refrão]
Bbmaj7 A7sus4
Don't let me in with with no intention to keep me
F
Jesus Christ, don't be kind to me.
Gm Dm
Honey don't feed me I will come back.
[Riff]
[Estrofe]
D
Can't be unlearned
I've known the warmth of your doorways
Through the cold, I'll find my way back to you
[Puente]
Gm Dm (riff X1)
Oh please, give me mercy no more.
Gm Dm (riff X1)
That's a kindness you can't afford!
Bbmaj7
I want you baby tonight, as sure as you're born
A7sus4 Dm
You'll hear me howling outside your door.
[Outro]
Dm
Don't you hear me howling babe?
Dm
Don't you hear me howling babe?
Dm
Don't you hear me howling babe?
Dm
Don't you hear me howling
Dm
Don't you hear me howling
Dm
Don't you hear me howling babe?
Este site utiliza cookies