La Torre De Babel

Para adicionar a uma lista pessoal, você deve
ou

Los Tres

Versão
estudio
publicado por
iri
Tom
A-
A+
Deslizar
A -> La
Video
Acordes
Tradução
	 
[Intro]
A A G A
e|--------9--7--|--------9--7--|---------10-9-10-9-10-9-10-9-7-9--|

B|------8-------|------8-------|------8---------------------------|

G|--7/9---------|--7/9---------|--7/9-----------------------------|

D|--------------|--------------|----------------------------------|

A|--------------|--------------|----------------------------------|

E|--------------|--------------|----------------------------------|

e|----------------------------------------|------------------------------------|

B|----------------------------------------|------------------------------------|

G|----------------------------------------|------------------------------------|

D|-------15-15--------15-15--------15-15--|-13--13--13-13-13---15-15-15-15-15--|

A|--7/16-16-16--10/16-16-16--10/16-16-16--|-14--14--14-14-14---16-16-16-16-16--|

E|----------------------------------------|------------------------------------|

[Estrofe]
A7 G7
En la torre de babel vivían 50 cigarros
A7 G7
Vivian amontonados hechos todos de papel
[Tablatura]
e|-----------------------------------------------|-------------------------|

B|-----------------------------------------------|-------------------------|

G|-----------------------------------------------|-------------------------|

D|----------------------------5-5----------------|-------------------------|

A|----------------7-7-6-6-7-7-----7-7-6-6-7-7----|--5-5--6-6--7-7-6-6-7-7--|

E|-0-0--3-3-4-4-5--------------------------------|-3----4----5-------------|

[Estrofe]
A7 G7
Uno a uno alineados, todos muy bien formados
A7 G7
el mas pequeño era aquel y se llamaba Gabriel
[Intro]
[Intro]
A A G A
e|--------9--7--|--------9--7--|---------10-9-10-9-10-9-10-9-7-9--|

B|------8-------|------8-------|------8---------------------------|

G|--7/9---------|--7/9---------|--7/9-----------------------------|

D|--------------|--------------|----------------------------------|

A|--------------|--------------|----------------------------------|

E|--------------|--------------|----------------------------------|

[Estrofe]
A7 G7
la pasión de Gabriel era nadar en el rió
A7 G7
Le contó de esto a su tío que era un cigarro de miel.
A7 G7
Tabaco fino algodones, iban a ver el río
A7 G7
Iban cantando canciones, muertos de frío

[Tablatura]
e|------------------------|------------------------|

B|-----0-1-3-1-3-1-0-1-0--|-----0-1-3-1-3-1-0-1-0--|

G|---2--------------------|---2--------------------|

D|------------------------|------------------------|

A|-0----------------------|-0----------------------|

E|------------------------|------------------------|

e|------------------------------------|

B|-/6--6-5--5-4--4-3---1--3--1--3-/5--|

G|---5----4----3------(0)(2)(0)(2)(4)-|

D|------------------------------------| x2

A|------------------------------------|

E|------------------------------------|

[Intro]
A A G A
e|--------9--7--|--------9--7--|---------10-9-10-9-10-9-10-9-7-9--|

B|------8-------|------8-------|------8---------------------------|

G|--7/9---------|--7/9---------|--7/9-----------------------------|

D|--------------|--------------|----------------------------------|

A|--------------|--------------|----------------------------------|

E|--------------|--------------|----------------------------------|

[Estrofe]
A7 G7 A7
Su tio que era muy viejo no le puso reparos
A7 G7 A7
y cuando llego el habano forrado entero de cafe
A7 G7 A7
Donde se metio Gabriel pregunto inquieto el habano
A7 G7 A7
Se fue con otros cigarros a ver el rio correr
A7 G7 A7
No lo puedo creer!!! eres muy mal ciudadano
A7 G7 A7
Pues tu sobrino y hermano tal vez nunca pueda volver.
[Solo]
e|--9-9---7------------------------------------------------|

B|-8-8-8-6-6--6/4---4--------------------------------------|

G|----------------6-----r0-r0-r0-r0-r0---6/4-0-------------|

D|--------------------------------------------r3-r3--------|

A|---------------------------------------------------------|

E|---------------------------------------------------------|

e|---------------------------------------------------------------|

B|---------------------------------------------------8-6-10-12/--|

G|-----------------------6-4-6---6-8-10--10-8-6-8-10-8-6-10-12/--|

D|---------------5-7-5-7---------7-9-11--11-9-7-9-11-9-7-11-13---|

A|---------4-6-4-------------------------------------------------|

E|-3-5-3-5-------------------------------------------------------|

e|--------|

B|--------|

G|----14--|

D|----15--|

A|----16--|

E|--------|

[Estrofe]
A7 G7
Cuando llego el habano a A7 orilla del rió
A7 G7
Vio un pequeño cigarro muerto, abierto y tendido
A7 G7
Estaba todo mojado sin señales de vida
A7 G7
El tabaco se desprendía quedaba desparramado
A7 G7
Tristeza, llantos, lamentos reinaran desde hoy en babel
A7 G7
Se nos ha muerto Gabriel todo ha quedado en silencio
[Refrão]
Am7 F Bm7/b5 E7
Solamente un buen fuego
Am7 F Bm7/b5 E7
puede dar muerte a un cigarro
Fm7 Em7 D#m7 Dm7
Pero si muere mojado es igual
C D C D E7
que si a un hombre lo mataran
A A G A
colgado...Colgado...
Este site utiliza cookies