Fui Na Cachoeira

+ nova lista

Nanan

Versão
ao vivo
publicado por
iri
Tom
A-
A+
Deslizar
A -> La
Video
Acordes
	 
[Intro]
E|------------------0----------0------------|

B|-5----5----4---2----2-5---2----2---0------|

G|-----------------------------------1--1---|

D|-6--6---6--4---2-2----6---2-2---2--2-2-2--|

A|-7--------------------7------------2------|

E|------------------------------------------|

E|------------------------------------------|

B|------------------------------------------|

G|-1--1----2---4----------------------------|

D|-1/2--2/4-4/6-----------------------------|

A|------------------------------------------|

E|------------------------------------------|

[Refrão]
E
Fui na cachoeira, Ahh
E
Fui na cachoeira
F#m A
Ahh, aaah
[Estrofe]
F#m B F#m
Fui na cachoeira me banhar
B F#m B
Num sol que por de trás
F#m B
Da copa da árvore brotou
F#m B
Veio no meu rosto e brilhou, Quando eu
[Estrofe]
E C#m E
Fui na cachoeira
F#m B
Me sanar do pensar
F#m B
Ver coração aparecer
F#m B
Quando eu vi água correndo
F#m B
Eu deixei ele escorrer, Quando eu
E C#m E
Fui na cachoeira
[Puente]
( C#m7 B A )

( C#m7 A E )

[Intro]
E|------------------0----------0------------|

B|-5----5----4---2----2-5---2----2--0-------|

G|----------------------------------1-------|

D|-6--6---6--4---2-2----6---2-2---2| —2-----|

A|-7--------------------7-----------2-------|

E|------------------------------------------|

[Estrofe]
E C#m E
Eu fui na cachoeira
F#m B
Me banhar em águas puras
F#m B
Da doce Mãe Maria
F#m B
Rainha da Floresta
F#m B
Oxum, flechada guia
E C#m E
Fui na cachoeira
[Tablatura]
E|-12---12-11-9---9-12-9-7----7-------------|

B|------------------------------------------|

G|--9-9----11-9-9----9-9-4-4-4--4-----------|

D|-—-—--------------------------------------|

A|------------------------------------------|

E|------------------------------------------|

[Puente]
E C#m E
Fui na cachoeira
[Tablatura]
E
E|------------------------------------------|

B|------------------------------------------|

G|-6-4-6-4-6-4-6-4--9--8-9--8-9--8-9--8-----|

D|-—-—--------------------------------------|

A|-7-6-7-6-7-6-7-6--11-9-11-9-11-9-11-9-----|

E|------------------------------------------|

E
E|------------------------------------------|

B|-10-9-10-9-10-9-10-9--9-7-9-7-9-7-9-7-----|

G|-11---11---11---11------------------------|

D|-—-—9----9----9----9--9-7-9-7-9-7-9-7-----|

A|------------------------------------------|

E|------------------------------------------|

E
E|----------------------0---0---------------|

B|-10-9-10-9-10-9-10-9---0--0---------------|

G|-11---11---11---11------0-1---------------|

D|-—-—9----9----9----9------2---------------|

A|--------------------------2---------------|

E|--------------------------0---------------|

[Puente]
C#m
Em seus muitos olhos
E
Me vi
A B A E
Universo a rodopiar
C#m
Ver que o fluir das águas
E
Ele é simples, pois
A B E
Está em tudo o que há
C#m
Em seus mundos, olhos
E
Me vi
A B A E
Universo a rodopiar
C#m
Ver que o fluir das águas
E
É simples
B E
Pois é tudo o que há
[Outro]
E C#m E
Fui na cachoeira
Ahh
E C#m E
Fui na cachoeira
F#m B
Ahh
F#m B
Fui na cachoeira
E
Me curar
Este site utiliza cookies