Alagados

Para adicionar a uma lista pessoal, você deve
ou

Os Paralamas do Sucesso

Versão
estudio
publicado por
rafah
Tom
A-
A+
Deslizar
A -> La
Video
Acordes
	 
[Tablatura]
A E D
e|--------------------- ----------- ------------|

b|---2-------5-3p2---2- ---5-----5- ---3-----3--|

g|-----2---2----------- -----4----- -----2------

d|-------2---------2--- -------6--- -------4----|

a|-0------------------- -7--------- -5----------|

E|--------------------- ----------- ------------|

A E D
e|----9---------12-10p9----9- ----12-------12- ----10-------10-|

b|------10---10-------------- -------12------- -------10-------|

g|---------9-------------9--- -13-------13---- -11-------11----

d|-11------------------------ ---------------- ----------------|

a|--------------------------- ---------------- ----------------|

E|--------------------------- ---------------- ----------------|

[Estrofe]
A E D
Todo dia o sol da manhã
A
Vem e lhes desafia
E D
Traz do sonho pro mundo
A
Quem já não queria
E D A
Palafitas, trapiches, farrapos
C#m E D
Filhos da mesma agonia
A E D
E a cidade que tem braços abertos
A
Num cartão postal
E D A
Com os punhos fechados na vida real
E D A
Lhes nega oportunidades
C#m E D
Mostra a face dura do mal
[Refrão]
A E D A
Alagados Trenchtown Favela da maré
E
A esperança não vem do mar
D A
Vem das antenas de TV
E D A
A arte de viver da fé só não se sabe fé em que
E D A
A arte de viver da fé só não se sabe fé em que
[Estrofe]
A E D
Todo dia o sol da manhã
A
Vem e lhes desafia
E D
Traz do sonho pro mundo
A
Quem já não queria
E D A
Palafitas, trapiches, farrapos
C#m E D
Filhos da mesma agonia
A E D
E a cidade que tem braços abertos
A
Num cartão postal
E D A
Com os punhos fechados na vida real
E D A
Lhes nega oportunidades
C#m E D
Mostra a face dura do mal
[Refrão]
A E D A
Alagados Trenchtown Favela da maré
E
A esperança não vem do mar
D A
Vem das antenas de TV
E D A
A arte de viver da fé só não se sabe fé em que
E D A
A arte de viver da fé só não se sabe fé em que
[Solo]
A E D (x4)
[Refrão]
A E D A
Alagados Trenchtown Favela da maré
E
A esperança não vem do mar
D A
Vem das antenas de TV
E D A
A arte de viver da fé só não se sabe fé em que
E D A
A arte de viver da fé só não se sabe fé em que
[Refrão]
A E D A
Alagados Trenchtown Favela da maré
E
A esperança não vem do mar
D A
Vem das antenas de TV
E D A
A arte de viver da fé só não se sabe fé em que
E
A arte de viver da fé
Este site utiliza cookies