Semen-Up

Para adicionar a uma lista pessoal, você deve
ou

Patricio Rey y sus Redonditos de Ricota

Versão
estudio
publicado por
iri
Tom
A-
A+
Deslizar
A -> La
Video
Acordes
Tradução
	 
[Riff]
e|----------(4~)----------------4-4----4-4----4-4-|--------4/(7)-------------4-4----4-4----4--4-|

b|-3-4-3-4~------3-4------------4-4----4-4----4-4-|3-4-3-4~-----3-4----------4-4----4-4----4--4-|

g|-------------------3-4--------4-4----4-4----4-4-|----------------3-4-------4-4----4-4----4--4-|

D|-----------------------5-6----------------------|--------------------5-6----------------------|

A|------------------------------------------------|---------------------------------------------|

E|----------------------------4------4------4-----|------------------------4------4------4------|

e|-----------4p0--|---------------|-------------5--4h5p4-|----4----4--------------------|

b|----------------|-----5---------|-----5----------------|----4----4---3-4--------------|

g|----------------|-------4-(7~)--|-------4-(7~)---------|-----------------3-4----------|

D|----------------|-4/6-----------|-4/6------------------|---------------------5-6------|

A|-6-5-4-3-2------|---------------|----------------------|------------------------------|

E|-4-3-2-1-0------|---------------|----------------------|-4----4----4--------------(4)-|

[Tablatura]
fill 1 fill2 fill 3 fill4
e|-4b-----------|-4-----------|--16-16--------------|-(4)-----------|

b|-4b---2^0-----|-4-/2--------|--16-16-14-----------|-(4)-----------|

g|-4b-/-----(1~)|------4-(1~)-|-----------16-/(13~)-|-----(4~)------|

D|--------------|-------------|---------------------|----------(6~)-|

A|--------------|-------------|---------------------|---------------|

E|--------------|-------------|---------------------|---------------|

[Estrofe]
fill 1 fill 2
Ella tiene una forma de hacerme creer
Abm fill 3
que es para mi la mejor manzana
Abm fill 4
su estilo desprecia mi soñar,
Abm Ab - G - Gb - F - E
con ella soy rico gratis
[Tablatura]
e|-------------------------------------------------------------------------|

b|-------------------------------------------------------------------------|

g|-------------------------------------------------------------------------|

D|-------------------------------------------------------------------------|

A|-6-5-4-3-2--2-2-2-2--2-2-2-2--2-2-2-2--2-2------2-2-2-2--2-2-2-2--2-2-2-2|

E|-4-3-2-1-0--0-0-0-0--0-0-0-0--0-0-0-0--0-0-3-4--0-0-0-0--0-0-0-0--0-0-0-0|

[Refrão]
E
La veo casi como un demonio
Abm
y rasco la alfombra por su amor, ay
[Tablatura]
e|----------(4~)----------------4-4----4-4----4-4-|

b|-3-4-3-4~------3-4------------4-4----4-4----4-4-|

g|-------------------3-4--------4-4----4-4----4-4-|

D|-----------------------5-6----------------------|

A|------------------------------------------------|

E|----------------------------4------4------4-----|

e|-------------------------------------------------------------------------|

b|-------------------------------------------------------------------------|

g|-------------------------------------------------------------------------|

D|-------------------------------------------------------------------------|

A|-6-5-4-3-2--2-2-2-2--2-2-2-2--2-2-2-2--2-2------2-2-2-2--2-2-2-2--2-2-2-2|

E|-4-3-2-1-0--0-0-0-0--0-0-0-0--0-0-0-0--0-0-3-4--0-0-0-0--0-0-0-0--0-0-0-0|

[Refrão]
E
La veo casi como un demonio
E
y rasco la alfombra por su amor
[Intro]
e|------------------|-------7-------------|-----------------|

b|--7-10--7---------|---------7-----------|-----------------|

g|----------9-7-----|-7-(9b)----9-7----11-|-----------------|

D|--------------9---|---------------9-----|-----9--8-(7)----|

A|------------------|---------------------|-----9--8-(7)----|

E|------------------|---------------------|-----7--6-(5)----|

[Estrofe]
Abm Fill2
"Saludable y catolica,
Abm Fill3
no le gusta que ande solo
Abm Fill4
se ha montado en mi nariz
Abm Ab - G - Gb - F - E
y es para mi la mejor fruta.
[Tablatura]
e|-------------------------------------------------------------------------|

b|-------------------------------------------------------------------------|

g|-------------------------------------------------------------------------|

D|-------------------------------------------------------------------------|

A|-6-5-4-3-2--2-2-2-2--2-2-2-2--2-2-2-2--2-2------2-2-2-2--2-2-2-2--2-2-2-2|

E|-4-3-2-1-0--0-0-0-0--0-0-0-0--0-0-0-0--0-0-3-4--0-0-0-0--0-0-0-0--0-0-0-0|

[Refrão]
E
La veo casi como un demonio
E Abm
y rasco la alfombra por su amor, ay
[Tablatura]
e|----------|--------7------|--7-----7--------|7------------------7--------|-------10-7---------|

b|7-10-7----|------7--10-7--|-7--10b--10-7----|-10-7--------------7--------|---7-10----10-7-----|

g|------9-7-|7(9b)--------9-|9------------9-7-|-----9b---7--7-9b----7--7-9b|7-9------------97-11|

D|---------9|---------------|----------------9|--------9--9--------9--9----|--------------------|

A|----------|---------------|-----------------|----------------------------|--------------------|

E|----------|---------------|-----------------|----------------------------|--------------------|

[Medio]

Semen up
[Solo]
G# C# G# Bb G#
e|-----12------11~|----11-----9~|-----9----7|------7-----6~|-----6----4~|-----4----3~|

b|----------------|-------------|-----------|--------------|------------|------------|

g|11-13---13-11---|9-11---11-9--|-8-9---9-8-|--6-8----8-6--|-4-6---4-6--|-3-4---4-3--|

D|----------------|-------------|-----------|--------------|------------|------------|

A|----------------|-------------|-----------|--------------|------------|------------|

E|----------------|-------------|-----------|--------------|------------|------------|

G# Gdimm Bbdimm
e|-6-|-------------------4-4---4-4---4-4--|

b|---|-3-4---3-4---------4-----4-----4----|

g|---|-------------------4-4---4-4---4-4--|

D|---|-----------5-6----------------------|

A|---|------------------------------------|

E|---|-----------------4-----4-----4------|

[Estrofe]
fill 1 fill 2
Ella tiene una forma de hacerme creer
Abm fill 4
que es para mi la mejor manzana
Abm fill 1
su estilo desprecia mi soñar,
Abm estribillo
con ella soy rico gratis
[Tablatura]
e|-------------------------------------------------------------------------|

b|-------------------------------------------------------------------------|

g|-------------------------------------------------------------------------|

D|-------------------------------------------------------------------------|

A|-6-5-4-3-2--2-2-2-2--2-2-2-2--2-2-2-2--2-2------2-2-2-2--2-2-2-2--2-2-2-2|

E|-4-3-2-1-0--0-0-0-0--0-0-0-0--0-0-0-0--0-0-3-4--0-0-0-0--0-0-0-0--0-0-0-0|

[Refrão]
E
La veo casi como un demonio
E Abm
y rasco la alfombra por su amor, ay
[Tablatura]
e|---------------------------------------|----4-4----4-4----4-4---4-4---|

b|-----------------3-4-------------------|----4-4----4-4----4-4---4-4---|

g|---------------------3-4---------------|----4-4----4-4----4-4---4-4---|

D|-------------------------5-6-----------|------------------------------|

A|---------------------------------------|------------------------------|

E|-----------------------------4---------|--4------4------4-----4-------|

e|-------------------------------------------------------------------------|

b|-------------------------------------------------------------------------|

g|-------------------------------------------------------------------------|

D|-------------------------------------------------------------------------|

A|-6-5-4-3-2--2-2-2-2--2-2-2-2--2-2-2-2--2-2------2-2-2-2--2-2-2-2--2-2-2-2|

E|-4-3-2-1-0--0-0-0-0--0-0-0-0--0-0-0-0--0-0-3-4--0-0-0-0--0-0-0-0--0-0-0-0|

[Refrão]
E
La veo casi como un demonio
E Abm
y rasco la alfombra por su amor, ay
[Solo]
G# C# G# Bb G#
e|-----12------11~|----11-----9~|-----9----7|------7-----6~|-----6----4~|

b|----------------|-------------|-----------|--------------|------------|

g|11-13---13-11---|9-11---11-9--|-8-9---9-8-|--6-8----8-6--|-4-6---4-6--|

D|----------------|-------------|-----------|--------------|------------|

A|----------------|-------------|-----------|--------------|------------|

E|----------------|-------------|-----------|--------------|------------|

Gdimm Bbdimm
e|-----4----3~|-6-|-------------------4-4---4-4---4-4--|

b|------------|---|-3-4---3-4---------4-----4-----4----|

g|-3-4---4-3--|---|-------------------4-4---4-4---4-4--|

D|------------|---|-----------5-6----------------------|

A|------------|---|------------------------------------|

E|------------|---|-----------------4-----4-----4------|