It Ain't Me

Para adicionar a uma lista pessoal, você deve
ou

Selena Gomez

Versão
estudio
publicado por
loveworld
Tom
A-
A+
Deslizar
A -> La
Video
Acordes
Tradução
	 
[Intro]
Am C F C
e|---------------------------------------|---------------------------------------------|

B|---5--x--------5--x--8--x--------8--x--|--10--x---------10--x--8--x--------8--x------|

G|---5--x--5--------x--9--x--9--------x--|--10--x--10---------x--9--x--9--------x------|

D|------x-----------x-----x-----------x--|------x-------------x-----x-----------x------|

A|------x-----------x-----x-----------x--|--8---x------8------x-----x-----------x------|

E|---5--x-----5-----x--8--x-----8-----x--|-----------------------8--x-----8-----x------|

F C G
e|---------------------------------------|---------------------------------------------|

B|--10--x-------10--x--8--x--------8--x--|--12--x---------12--x--13p12--x--------12-x--|

G|--10--x--10-------x--9--x--9--------x--|--12--x--12---------x--12-----x--12-------x--|

D|------x-----------x-----x-----------x--|------x-------------x---------x-----------x--|

A|--8---x-----8-----x-----x-----------x--|--10--x------10-----x--10-----x-----10----x--|

E|---------------------8--x-----8-----x--|---------------------------------------------|


x = dead note (muted)

p = pull-off

[Estrofe]
Am C F C
I had a dream, we were sipping whisky neat
F C G
Highest floor, the Bowery, and nowhere’s high enough
Am C F C
Somewhere along the lines, we stopped seeing eye to eye
F C G
You were staying out all night and I had enough
[Pre-Refrão]
F Am F C
No, I don't wanna know where you been or where you're goin’
F Am G
But I know I won't be home and you'll be on your own
[Tablatura]
F C G E7 Am
e|----------------------------|

B|--10---8----12----12----13--|

G|--10---9----12----13----14--|

D|--10---10---12----12----14--|

A|--8----10---10----11----12--|

E|-------8--------------------|

[Refrão]
F C G
Who's gonna walk you through the dark side of the morning?
F C G
Who's gonna rock you when the sun won't let you sleep?
F C G E7 Am
Who's waking up to drive you home when you're drunk and all alone?
F C G
Who's gonna walk you through the dark side of the morning, it ain’t me
[Medio]
Am C G F
Ow-ow, ah-ah the Bowery, ow-ow, ah-ah whiskey neat
Am C G G
Where y’go, I’m so, grateful, I (it ain’t me)
F C Am G
Ow-ow, ah-ah the Bowery, ow-ow, ah-ah whiskey neat
F C G
Where y’go, I’m so, grateful, I (it ain’t me)
Am C G F
Ow-ow, the Bowery, ow-ow, the whiskey neat
Am C G G
Where y’go, I’m so, grateful, I (it ain’t me)
F C Am G
Ow-ow, the Bowery, ow-ow, the whiskey neat
F C G G
Where y’go, I’m so, grateful, I (it ain’t me)
[Estrofe]
Am C Am C F C
I had a dream, we were back to seventeen
F C G
Summer nights and the Libertines, never growing up
Am C F C
I'll take with me the polaroids and the memories
F C G
But you know I'm gonna leave behind the worst of us
[Refrão]
F C G
Who's gonna walk you through the dark side of the morning?
F C G
Who's gonna rock you when the sun won't let you sleep?
F C G E7 Am
Who's waking up to drive you home when you're drunk and all alone?
F C G
Who's gonna walk you through the dark side of the morning
F C G
It ain’t me, no-o, no-o
F C G
It ain’t me, no-o, no-o
F C G E7 Am
It ain’t me, no-o, no-o
F C G
Who's gonna walk you through the dark side of the morning, it ain’t me
[Outro]
Am C G F
Ow-ow, the Bowery, ow-ow, the whiskey neat
Am C G G
Where y’go, I’m so, grateful, I (it ain’t me)
F C Am G
Ow-ow, the Bowery, ow-ow, the whiskey neat
F C G G
Where y’go, I’m so, grateful, I (it ain’t me)
Am C G F
Ow-ow, the Bowery, ow-ow, the whiskey neat
Am C G G
Where y’go, I’m so, grateful, I (it ain’t me)
F C Am G
Ow-ow, the Bowery, ow-ow, the whiskey neat
F C G G
Where y’go, I’m so, grateful, I (it ain’t me)
Am C G F
Ow-ow, the Bowery, ow-ow, the whiskey neat
Am C G G
Where y’go, I’m so, grateful, I (it ain’t me)
F C Am G
No no, no no no, Bowery, no no, no no no, whiskey neat
F C G Am
Where y’go, I’m so, grateful, I, it ain’t me
Este site utiliza cookies