In My Blood

Para adicionar a uma lista pessoal, você deve
ou

Shawn Mendes

Versão
estudio
publicado por
rafah
Tom
A-
A+
Deslizar
A -> La
Video
Acordes
Tradução
	 
F Bb Dm F F/A Bmaj7 Dm/A Bmaj7

e|-----6----5----1----5----5----5----5----|

B|10---6----6----1----6----6----6----6----|

G|10---7----7----2----5----7----7----7----|

D|10---8----7----3----7----8----7----8----|

A|8----8----5----3------------------------|

E------6---------1-------------------6----|

[Tablatura]
[Chorus]

F Bb Dsus2

e|--------------------------------|--------------------------------|

B|10------10------10------10------|--------------------------------|

G|--------------------------------|7-------7-------7-------7-------|

D|--------------------------------|--------------------------------|

A|8-----8-------8-------8---------|--------------------------------|

D|------------------------------8-|------8-------8-------8-------0-|

Dsus2 Bb

e|--------------------------------|--------------------------------|

B|--------------------------------|--------------------------------|

G|7-------7-------7-------7/9-----|7-------7-------7-------7-------|

D|--------------------------------|--------------------------------|

A|--------------------------------|--------------------------------|

D|0-----0-------0-------0---------|8-----8-------8-------8---------|

[Refrão]
F Bb
Help me, it's like the walls are caving in
Dsus2
Sometimes I feel like giving up
Bb F
But I just can't, it isn't in my blood
[Estrofe]
Bb
Laying on the bathroom floor, feeling nothing
I'm overwhelmed and insecure
Dsus2
Give me something
Bb
I could take to ease my mind slowly
F
Just have a drink and you'll feel better
Bb
Just take her home and you'll feel better
Dsus2
Keep telling me that it gets better
Bb
Does it ever?
[Refrão]
F/A Bmaj7
Help me, it's like the walls are caving in
Dm/A
Sometimes I feel like giving up
Bmaj7
No medicine is strong enough
F/A
Someone help me
Bmaj7
I'm crawling in my skin
Dm/A
Sometimes I feel like giving up
Bmaj7 F/A Bmaj7
But I just can't, it isn't in my blood
Dm/A Bmaj7
It isn't in my blood
[Estrofe]
F Bb
Looking through my phone again feeling anxious
Dm
Afraid to be alone again, I hate this
Bb
I'm trying to find a way to chill, can't breathe, oh
F
Is there somebody that could help me?
[Refrão]
Bb
It's like the walls are caving in
Dm
Sometimes I feel like giving up
Bb
No medicine is strong enough
F
Someone help me
Bb
I'm crawling in my skin
Dm
Sometimes I feel like giving up
Bb F/A Bmaj7
But I just can't, it isn't in my blood
Dm/A Bmaj7
It isn't in my blood
[Puente]
F/A
I need somebody now
Bmaj7
I need somebody now
Dm/A
Someone to help me out
Bmaj7
I need somebody now
[Outro]
F
Help me
Bb
It's like the walls are caving in
Dm
Sometimes I feel like giving up
Bb F Bb
But I just can't, it isn't in my blood
Dm Bb
It isn't in my blood
F
It isn't in my blood
Bb
I need somebody now
Dm
It isn't in my blood
Bb
I need somebody now
F
It isn't in my blood
Este site utiliza cookies