En El Séptimo Día

Para adicionar a uma lista pessoal, você deve
ou

Soda Stereo

Versão
estudio
publicado por
iri
Tom
A-
A+
Deslizar
A -> La
Video
Acordes
Tradução
	 
[Intro]
B5 F# A B5 F# A
E|-----------------------------|-----------------------------|

B|-----------------------------|-----------------------------|

G|-4---4-----------------------|-4---4-----------------------|

D|-4---4-----------------------|-4---4-----------------------|

A|-2---2--(2)-(2)--------0---0-|-2---2--(2)-(2)--------0---0-|x4

E|----------------2-2--2-------|----------------2-2-2--------|

D C# B5 E
E|-----------------------|------------------|

B|-----------------------|------------------|

G|-----------------------|-2p0--------------|

D|-7-7-7-7--6-6--4-4-4---|-----2/0----------|

A|-5-5-5-5--4-4--2-2-2---|---------2/0------|

E|-----------------------|-------------3/0--|

D C# B5 E
E|---------------0-----0--|-----12-------10----9--7--|

B|-3-------2--0--0-----0--|--------------------------|

G|-4-(X6)--2--0--1--1--1--|-2/13---13/11-----9--7----|

D|-2-------2--0--2--2--2--|--------------------------|

A|------------------2-----|--------------------------|

E|------------------------|--------------------------|

[Estrofe]
Dsus2 (A) B5 Riff (B5 B5 - F# F# - A A )
Ooooh! Oooooohhh! Ooooh! ooohhh!
Riff (B5 B5 - F# F# - A A )
Odio este domingo híbrido de siempre
Dsus2 (A) B5 Riff (B5 B5 - F# F# - A A )
Me da igual, me da igual.
Riff (B5 B5 - F# F# - A A )
Es un beso en la pantalla del autocine
Dsus2 (A) B5 (Fig.01 x1)
Sin gozar, sin gozar.
[Tablatura]
Bm/E A G E
E|---------------0-----0------|

B|-3-------2--0--0-----0------|

G|-4-(X6)--2--0--1--1--1------|

D|-2-------2--0--2--2--2------|

A|------------------2---------|

E|----------------------------|


[Puente]
Bm/E A G E
El ojo de la aguja
Bm/E A G E
La punta de mi lengua
Dsus2 (A) B5
Es igual, es igual.
[Intro]
B5 F# A B5 F# A
E|-----------------------------|-----------------------------|

B|-----------------------------|-----------------------------|

G|-4---4-----------------------|-4---4-----------------------|

D|-4---4-----------------------|-4---4-----------------------|

A|-2---2--(2)-(2)--------0---0-|-2---2--(2)-(2)--------0---0-|

E|----------------2-2--2-------|----------------2-2-2--------|

[Estrofe]
Riff (B5 B5 - F# F# - A A )
El comienzo fue un big-bang y fue caliente
Dsus2 (A) B5 Riff (B5 B5 - F# F# - A A )
Revolver, revolver...
Riff (B5 B5 - F# F# - A A )
Sobre los titulos vi caer tu nombre
Dsus2 (A) B5 (Fig.01 x1)
Reaccioné, reaccioné.
[Refrão]
D G A G
Sólo Dios sabe que es el séptimo dia
D G A E
El abismo y la luna en el séptimo dia
B5
No descansaré...
[Intro]
B5 F# A B5 F# A
E|-----------------------------|-----------------------------|

B|-----------------------------|-----------------------------|

G|-4---4-----------------------|-4---4-----------------------|

D|-4---4-----------------------|-4---4-----------------------|

A|-2---2--(2)-(2)--------0---0-|-2---2--(2)-(2)--------0---0-|x4

E|----------------2-2--2-------|----------------2-2-2--------|

[Tablatura]
B7
E|-7---7-7--7-7----7---7-7--7------|

B|-10--9-10-9-10---10--9-10-9------|

G|-8---8-8--8-8----8---8-8--8------|

D|-7---7-7--7-7----7---7-7--7------|

A|-9---9-9--9-9----9---9-9--9------|x2

E|-7---7-7--7-7----7---7-7--7------|

D
E|--------------------|

B|-10--9-10-9-10------|

G|-7---7-7--7-7-------|

D|-7---7-7--7-7-------|

A|--------------------|

E|--------------------|

[Puente]
B7
Eh! En este tiempo anfibio temo perderte
D
Por volar, por volar.
Bm/E A G E
El reino de los cielos
Bm/E A G E
La punta de mi lengua
[Refrão]
D5 G
Es igual, es igual.
A G
En el séptimo dia
D G
El abismo y la luna
A G
En el séptimo dia
D G A G
Solo Dios sabe que es el séptimo dia
D G A E
El abismo y la luna en el séptimo dia
E
...
B5
No descansaré...
[Intro]
B5 F# A B5 F# A
E|-----------------------------|-----------------------------|

B|-----------------------------|-----------------------------|

G|-4---4-----------------------|-4---4-----------------------|

D|-4---4-----------------------|-4---4-----------------------|

A|-2---2--(2)-(2)--------0---0-|-2---2--(2)-(2)--------0---0-|

E|----------------2-2--2-------|----------------2-2-2--------|

D D C# D B
E|------|----------|

B|------|----------|

G|------|----------|

D|-7-7--|-7-6-7--4-|

A|-5-5--|-5-4-5--2-|

E|------|----------|

B5 F# A B5 F# A
E|-----------------------------|-----------------------------|

B|-----------------------------|-----------------------------|

G|-4---4-----------------------|-4---4-----------------------|

D|-4---4-----------------------|-4---4-----------------------|

A|-2---2--(2)-(2)--------0---0-|-2---2--(2)-(2)--------0---0-|

E|----------------2-2--2-------|----------------2-2-2--------|

D D C# D B
E|------|----------|

B|------|----------|

G|------|----------|

D|-7-7--|-7-6-7--4-|

A|-5-5--|-5-4-5--2-|

E|------|----------|

Puente Bateria
[Tablatura]
B7
E|-7---7-7--7-7----7---7-7--7------|

B|-10--9-10-9-10---10--9-10-9------|

G|-8---8-8--8-8----8---8-8--8------|

D|-7---7-7--7-7----7---7-7--7------|

A|-9---9-9--9-9----9---9-9--9------|x2

E|-7---7-7--7-7----7---7-7--7------|

B7
E|-10--10-7--7-7----7---7-7--7------|

B|-10--10-10-9-10---10--9-10-9------|

G|-8---8--8--8-8----8---8-8--8------|

D|-7---7--7--7-7----7---7-7--7------|

A|-9---9--9--9-9----9---9-9--9------|x2

E|-7---7--7--7-7----7---7-7--7------|

Fue