Walk This Way

To add a personal list must
or

Aerosmith

Version
studio
published by
rafah
Tone
A-
A+
Slide
A -> La
Video
Chords
	 
Chords Used :

C/G Am/G C5/G C7/G Cm6/G Fsus2 Csus2/F Cm/F F7

E|--0-----0------8--------0-----------------8-------10---------11----8----|

B|--8-----10-----8--------11-------10-------8-------8----------8-----10---|

G|--0-----0------0--------0--------8--------10------10---------10----8----|

D|--10----10-----10-------10-------10-------10------10---------10----10---|

A|--10----10----(10)------10-------10-------8-------8----------8-----8----|

E|------------------------------------------------------------------------|

[Intro]
E|--------0----------0--------------0----------0------0---|

B|--------0----------0--------------0----------0------3---|

G|--------1----------1--------------1----------1------1---|

D|--------2----------2--------------2----------2------2---|

A|--0h1h2------0h1h2----------0h1h2------0h1h2--------2---|

E|---------------------0--------------------------3p0-----|

E|--------0----------0--------------0----------0----------|

B|--------0----------0--------------0----------0------3---|

G|--------1----------1--------------1----------1------2---|

D|--------2----------2--------------2----------2------2---|

A|--0h1h2------0h1h2----------0h1h2------0h1h2--------0---|

E|---------------------0----------------------------------|

[Verse]
C/G Am/G C/G C5/G C7/G Am/G
Back stroke lover al ways hi din' 'neath the covers till I
C/G Am/G C/G
Talked to your daddy, he say, he said you
C/G Am/G C/G C5/G C7/G Am/G
ain't seen nothin' till you're do wn on a muffin then you're
C/G Am/G C/G
sure to be a-changin' your ways" I met a
C/G Am/G C/G C5/G C7/G Am/G
cheerleader was a re - al young bleeder oh, the
C/G Am/G C/G
times I could reminis - ce 'cause the
C/G Am/G C/G C5/G C7/G Am/G
best things of lovin' with her sis - ter and her cousin only
C/G Am/G C/G C7/G
started with a little kiss like this!
[Tab]
E|--------0----------0--------------0----------0------0---|

B|--------0----------0--------------0----------0------3---|

G|--------1----------1--------------1----------1------1---|

D|--------2----------2--------------2----------2------2---|

A|--0h1h2------0h1h2----------0h1h2------0h1h2--------2---|

E|---------------------0--------------------------3p0-----|

E|--------0----------0--------------0----------0----------|

B|--------0----------0--------------0----------0------3---|

G|--------1----------1--------------1----------1------2---|

D|--------2----------2--------------2----------2------2---|

A|--0h1h2------0h1h2----------0h1h2------0h1h2--------0---|

E|---------------------0----------------------------------|

[Verse]
C/G Am/G C/G C5/G C7/G Am/G
see saw swingin' with the bo - ys in the school and your
C/G Am/G C/G C7/G
feet flyin' up in the air singin'
C/G Am/G C/G C5/G C7/G Am/G
hey diddle diddle with your ki - tty in the middle of the
C/G Am/G C/G C7/G
swing like you didn't care so I
C/G Am/G C/G C5/G C7/G Am/G
took a big chance at the high s-chool dance with a
C/G Am/G C/G
missy who was ready to play wasn't
C/G Am/G C/G C5/G C7/G Am/G
me she was foolin' 'cau - se she knew what she was doin' and I
C/G Am/G C/G
knowed love was here to stay when she told me to
[Chorus]
C/G Am/G C7/G Cm6/G
walk this way
Fsus2 Csus2/F Cm/F F7
Talk this way
C/G Am/G C7/G Cm6/G
walk this way
Fsus2 Csus2/F Cm/F F7
Talk this way
[Solo]
C/G Am/G C/G C5/G C7/G Am/G
just gimme a kiss
like this!
[Verse]
C/G Am/G C/G C5/G C7/G Am/G
schoolgirl sweetie with a cla - ssy kinda sassy little
C/G Am/G C/G C7/G
skirt's climbin' way up the knee there was
C/G Am/G C/G C5/G C7/G Am/G
three young ladies in the s-chool gym locker when I
C/G Am/G C/G C7/G
noticed they was lookin' at me I was a
C/G Am/G C/G C5/G C7/G Am/G
high school loser, ne - ver made it with a lady till the
C/G Am/G C/G
boys told me somethin' I missed then my
C/G Am/G C/G C5/G C7/G Am/G
next door neighbor with a daugh - ter had a favor so I
C/G Am/G C/G
gave her just a little kiss
like this!
[Tab]
E|--------0----------0--------------0----------0------0---|

B|--------0----------0--------------0----------0------3---|

G|--------1----------1--------------1----------1------1---|

D|--------2----------2--------------2----------2------2---|

A|--0h1h2------0h1h2----------0h1h2------0h1h2--------2---|

E|---------------------0--------------------------3p0-----|

E|--------0----------0--------------0----------0----------|

B|--------0----------0--------------0----------0------3---|

G|--------1----------1--------------1----------1------2---|

D|--------2----------2--------------2----------2------2---|

A|--0h1h2------0h1h2----------0h1h2------0h1h2--------0---|

E|---------------------0----------------------------------|

[Verse]
C/G Am/G C/G C5/G C7/G Am/G
see saw swingin' with the bo - ys in the school and your
C/G Am/G C/G
feet flyin' up in the air singin'
C/G Am/G C/G C5/G C7/G Am/G
hey diddle diddle with your ki - tty in the middle of the
C/G Am/G C/G
swing like you didn't care so I
C/G Am/G C/G C5/G C7/G Am/G
took a big chance at the high s-chool dance with a
C/G Am/G C/G
missy who was ready to play wasn't
C/G Am/G C/G C5/G C7/G Am/G
me she was foolin' 'cau - se she knew what she was doin' and I
C/G Am/G C/G
knowed love was here to stay when she told me to
[Chorus]
C/G Am/G C7/G Cm6/G
walk this way
Fsus2 Csus2/F Cm/F F7
Talk this way
C/G Am/G C7/G Cm6/G
walk this way
Fsus2 Csus2/F Cm/F F7
Talk this way
[Tab]
E|--------0----------0--------------0----------0------0---|

B|--------0----------0--------------0----------0------3---|

G|--------1----------1--------------1----------1------1---|

D|--------2----------2--------------2----------2------2---|

A|--0h1h2------0h1h2----------0h1h2------0h1h2--------2---|

E|---------------------0--------------------------3p0-----|

E|--------0----------0--------------0----------0----------|

B|--------0----------0--------------0----------0------3---|

G|--------1----------1--------------1----------1------2---|

D|--------2----------2--------------2----------2------2---|

A|--0h1h2------0h1h2----------0h1h2------0h1h2--------0---|

E|---------------------0----------------------------------|

This site uses cookies