Florcitay

To add a personal list must
or

Bruno Arias

Version
studio
published by
iri
Tone
A-
A+
Slide
A -> La
Chords
Translation
	 
[Riff]
e|-10/(12)-12-12-|-10/(12)-12-12-|-10/(12)-12-12-|-10-7----------|

b|-10/(12)-12-12-|-10/(12)-12-12-|-10/(12)-12-12-|-10-7----------|

g|---------------|---------------|---------------|---------------|

D|---------------|---------------|---------------|---------------|

A|---------------|---------------|---------------|---------------|

E|---------------|---------------|---------------|---------------|

e|-3/(5)-5-5-|-3/(5)-5-5-|-3/(5)-5-5-|-3-2----------|

b|-3/(5)-5-5-|-3/(5)-5-5-|-3/(5)-5-5-|-3-2----------|

g|-----------|-----------|-----------|--------------|

D|-----------|-----------|-----------|--------------|

A|-----------|-----------|-----------|--------------|

E|-----------|-----------|-----------|--------------|

e|-10/(12)-12-12-|-10/(12)-12-12-|-10/(12)-12-12-|-10-7----------|

b|-10/(12)-12-12-|-10/(12)-12-12-|-10/(12)-12-12-|-10-7----------|

g|---------------|---------------|---------------|---------------|

D|---------------|---------------|---------------|---------------|

A|---------------|---------------|---------------|---------------|

E|---------------|---------------|---------------|---------------|

e|-3/(5)-5-5-|-3/(5)-5-5-|-3/(5)-5-5-|-3-2-0--3-2-0--3-2-0--0---|

b|-3/(5)-5-5-|-3/(5)-5-5-|-3/(5)-5-5-|-3-2-0--3-2-0--3-2-0--0---|

g|-----------|-----------|-----------|----------------------0---|

D|-----------|-----------|-----------|----------------------2---|

A|-----------|-----------|-----------|----------------------2---|

E|-----------|-----------|-----------|----------------------0---|

e|-----------|-----------|-----------|--------------|

b|-----------|-----------|-----------|--------------|

g|-----------|-----------|-----------|--------------|

D|-----------|-----------|-----------|--------------|

A|-5/(7)-7-7-|-5/(7)-7-7-|-5/(7)-7-7-|-5-2----------|

E|-----------|-----------|-----------|--------------|

e|-----------|-----------|-----------|--------------|

b|-----------|-----------|-----------|--------------|

g|-----------|-----------|-----------|--------------|

D|-----------|-----------|-----------|--------------|

A|-----------|-----------|-----------|--------------|

E|-3/(5)-5-5-|-3/(5)-5-5-|-3/(5)-5-5-|-3-2----------|

e|-----------|-----------|-----------|--------------|

b|-----------|-----------|-----------|--------------|

g|-----------|-----------|-----------|--------------|

D|-----------|-----------|-----------|--------------|

A|-5/(7)-7-7-|-5/(7)-7-7-|-5/(7)-7-7-|-5-2----------|

E|-----------|-----------|-----------|--------------|

e|-----------|-----------|-----------|--------------|

b|-----------|-----------|-----------|--------------|

g|-----------|-----------|-----------|--------------|

D|-----------|-----------|-----------|--------------|

A|-----------|-----------|-----------|--------------|

E|-3/(5)-5-5-|-3/(5)-5-5-|-3/(5)-5-5-|-3-2-0--------|

e|-3-2-0-----|-3-2-0-----|-0-----|

b|-3-2-0-----|-3-2-0-----|-0-----|

g|-----------|-----------|-0-----|

D|-----------|-----------|-2-----|

A|-----------|-----------|-2-----|

E|-3-2-0-----|-3-2-0-----|-0-----|

[Verse]
Em D/F# Am
Florcitay no lloooores
C7 Em
pronto hei de volver
Am D7 G
Larga es la cosecha
Am7 B7 Em
Pero espereme
Am D7 G
Larga es la cosecha
Am7 B7 Em
Pero espereme
B7 Em B7 Em
espereme, espereme.
[Riff]
e|---------|-----------|-------------|--------------|--------------|

b|---------|-------0---|-----0-----0-|--------------|--------------|

g|---------|-----0-----|---0-----0---|--------------|--------------|

D|-2p0-----|---2-------|-4-----2-----|--------------|---0----0----0|

A|-----2p0-|-4---------|-------------|-2p0----------|-2----4----2--|

E|---------|-----------|-------------|-----3-2-0----|--------------|

e|---------|-----------|-------------|--------------|------------|

b|---------|-------0---|-----0-----0-|-----0------0-|------------|

g|---------|-----0-----|---0-----0---|---0------0---|------------|

D|-2p0-----|---2-------|-4-----2-----|-2------2-----|---0----0---|

A|-----2p0-|-4---------|-------------|--------------|-2----0-----|

E|---------|-----------|-------------|--------------|------------|

[Verse]
Em D/F# Am
Ramita de yanten
C7 Em
guardese el desden
Am D7 G
que toda la vida
Am7 B7 Em
yo seré de usted,
Am D7 G
que toda la vida
Am7 B7 Em
yo seré de usted,
B7 Em B7 Em
sere de usted, sere de usted.
[Bridge]
Em
[Chorus]
Em D/F# Am
No sere gran cosa
C7 Em
pero lai querer
Am D7 G
y pal año entrante
Am7 B7 Em
ya seremos tres
Am D7 G
y pal año entrante
Am7 B7 Em
ya seremos tres
B7 Em B7 Em
seremos tres, seremos tres.
[Bridge]
Em
[Verse]
Em D/F# Am
Florcitay no llores
C7 Em
pronto hei de volver
Am D7 G
con la alforja llena
Am7 B7 Em
todo para usted
Am D7 G
con la alforja llena
Am7 B7 Em
todo para usted
Am7 B7 Em B7 Em
todo para usted, para usted.
[Riff]
[Verse]
Em D/F# Am
Florcitay cuidese
C7 Em
que bajo su piel
Am D7 G
lleva un niño mio
Am7 B7 Em
que sikuri ay ser
Am D7 G
lleva un niño mio
Am7 B7 Em
que sikuri ay ser
Am7 B7 Em B7 Em
sikuri ay ser, sikuri ay ser.
[Bridge]
[Chorus]
Em D/F# Am
No sere gran cosa
C7 Em
pero lai querer
Am D7 G
y pal año entrante
Am7 B7 Em
ya seremos tres
Am D7 G
y pal año entrante
Am7 B7 Em
ya seremos tres
B7 Em B7 Em
seremos tres, seremos tres.
[Bridge]
Em