Guanuqueando

To add a personal list must
or

Bruno Arias

Version
studio
published by
iri
Tone
A-
A+
Slide
A -> La
Video
Chords
Translation
	 
[Intro]
e|-3-----5-----7-----|-8---8---8----|-8---8---8----|

B|---0------0-----0--|---8---8---8--|---7---7---7--|

G|-------------------|--------------|--------------|

D|-2-----4-----5-----|-7------------|-7------------|

A|-------------------|--------------|--------------|

E|-------------------|--------------|--------------|

e|-12---12----12-----|-5---5---5-----|-2---3---5---|

B|---10----10----10--|---5---5---5-4-|---0---0-----|

G|-------------------|---------------|-------------|

D|-10----------------|-4-------------|-1---2---4---|

A|-------------------|---------------|-------------|

E|-------------------|---------------|-------------|

e|---7----|---7-----|-------|--------|-------------0-|--------------|

B|-8---8--|-7---7---|---7-8-|-3-1-0--|---1-1-1-1-3---|--------0---0-|

G|--------|-------7-|-9-----|--------|---------------|-4-2-0----0---|

D|--------|---------|-------|--------|---------------|--------------|

A|-7------|---------|-------|--------|---0-----0-----|--------------|

E|--------|-7-------|-------|-3------|-3-------------|-3------3-----|

e|---------|--------------------------|-------|----------|-3---3--2----|

B|-----0-1-|-----3---3--------0-1---3-|-0-----|----------|---0------0--|

G|-0-2-----|---2---2--------2---------|---2-0-|----------|-------------|

D|---------|--------------------------|-------|----------|-------------|

A|---------|--------------------------|-------|----------|-------------|

E|-3-------|-1-----------2------------|-3-----|-3-3-3-3--|-3------2----|

e|-----------7-|-7--------|------------|--------|------------0-|--------------------|

B|--8-8-8-10---|-------7--|--------7-8-|-3-1-0--|--1-1-1-1-3---|-0------------------|

G|-------------|---9p7----|--9-9-9-----|--------|--------------|---2p0--------------|

D|-------------|----------|------------|--------|--------------|--------2p0---------|

A|-7-----------|----------|------------|--------|--0-----0-----|------------3p2p0---|

E|-------------|-7--------|-8----------|-3----3-|--------------|-3----------------3-|

e|--------------------------|-------|----------|-3---3--2----|

B|-----3---3--------0-1---3-|-0-----|----------|---0------0--|

G|---2---2--------2---------|---2-0-|----------|-------------|

D|--------------------------|-------|----------|-------------|

A|--------------------------|-------|----------|-------------|

E|-1-----------2------------|-3-----|-3-3-3-3--|-3------2----|

[Intro]
| Em | Bm | C | G | Am | G | F | D7/F# | G D/F# |
[Verse]
Em Bm
Venteros de labios quebrados
C G
zampoñas y quenas sonando
Am G
Antiguos respiros en la boca
F D7/F# G G D/F#
besos, besos de mi raza.
[Verse]
Em Bm
Retumba en la noche el silencio
C/G G
la tarde que se hace distancia
Am7 G
misterio que el tiempo descifra
F D7/F# G
ese, ese es tu respiro.
[Bridge]
| Am Em C/G |
[Chorus]
D C D
Siento quenas que en el viento huyen
B7 C/G D
trayendo amores y silencios de las peñas
C Cm G
que encierran el sol en mi corazón
Am Em C D
Entre airampos de luna
C D
zampoña s que en el viento huyen
B7 C/G
en viaje, buscando un cielo un cóndor va
D7 C Cm G D/F#
como mi ser resucitara buscando la luz.
[Solo]
| Em | Bm | C | G | Am | G | F | D7/F# | G | G D/F# |

| Em | Bm | C | G | Am | G | F | D7/F# | G | Am Em C/G |


| D | C | D | D |

| B7 | C/G | D | C/G | Cm | G | Am Em C/G |


| D | C | D | D |

| B7 | C/G | D | C/G | Cm | G | G D/F# |

[Verse]
Em Bm
la rai la la ra ra la la la
C/G G
la rai la la ra ra la la la
Am7 G
la rai la la ra ra la la la
F D7/F# G Am Em C/G
la rai la la ra ra la la la
[Chorus]
D C D
Siento quenas que en el viento huyen
B7 C/G D
trayendo amores y silencios de las peñas
C Cm G
que encierran el sol en mi corazón
Am Em C D
Entre airampos de luna
C D
zampoña s que en el viento huyen
B7 C/G
en viaje, buscando un cielo un cóndor va
D7 C Cm G G D/F#
como mi ser resucitara buscando la luz.
[Verse]
Em Bm
la ra
C/G G
la ra
Am7 G
la ra
F D7/F# G G D/F#
la ra
[Verse]
Em Bm
la ra la la la
C/G G
la ra
Am7 G
la ra
F D7/F# G G D/F#
la ra
[Verse]
Em Bm
la ra
C/G G
la ra
Am7 G
la ra
F D7/F# G G D/F#
la ra
[Verse]
Em Bm
la ra
C/G G
la ra
Am7 G
la ra
F D7/F# G G D/F#
la ra
[Outro]
Em Bm
la ra
C/G G
la ra
Am7 G
la ra
F D7/F# G G D/F#
la ra