El Balcón

To add a personal list must
or

Café Tacvba

Version
studio
published by
rafah
Tone
A-
A+
Slide
A -> La
Video
Chords
Translation
	 
[Tab]
1|---10-9---7-6----------------------|

2|---------------7--8--9--10-**-10---|

3|-----------------------------------|

4]-----------------------------------|

5|-----------------------------------|

6|-----------------------------------|

[Verse]
D Bm
Tu y yo
F#m Bm
en el balcón
D
que asoman los plantíos
A A7
de plátanos.
[Verse]
Em A
Los patrones
G A
han muerto y tu
Em A
aún sigues trapeando
D A
el piso de ajedrez.
[Verse]
D Bm
Vea acá
F#m
que desde aquí
Bm
se logran ver
D
todas las tierras
Em A
que ahora nuestras son.
[Verse]
Em A
que ahora nuestras son.
F#m Bm
el heredero será
Em A
pues de un indio y de una negra
D
eso da.
[Tab]
1|-------0------0-----5-2-0-2-5-4-3-2-0-2-|

2|-----2--2----2-4-3-2--3-----------------|

3|-2-4------2-4---------------------------|

4|----------------------------------------|

5|----------------------------------------|

6]----------------------------------------|

1|-0---0----------------------------------|

2|--3-2-4-3-2-100000--------0-------------|

3|------------------3333333---------------|

4|----------------------------------------|

5|----------------------------------------|

6|----------------------------------------|