Héroes Anónimos

To add a personal list must
or

Catupecu Machu

Version
studio
published by
rafah
Tone
A-
A+
Slide
A -> La
Video
Chords
Translation
	 
Tema de Metropoli (Isabel de Sebastián, Ulises Butrón)
[Intro]
B
[Verse]
B
Estamos atrapados en la misma red
F# E
Viajando por un laberinto
B
Estamos sosteniendo una pared
F# E
Por favor no la dejes caer.
[Verse]
B
Ceferino no me escucha mas
F# E
Adonde fue la Madre María
A B
Aunque no creo en la casualidad
F#
Sueño con loterías.
[Chorus]
B
Todos somos Héroes Anónimos
E F# G A
Guerreros en este lugar
B
Peleando con el corazón
E F# G A
Combatiendo tanta soledad
[Solo]
(B F# E) x2
--------------------------------------------

--------------------------------------------

--------------------------------------------

1-1-1-1-1-1-2-1-4---------------------------

---------------------2-2-2-4-4-2-4/5-4-2- --

--------------------------------------------

-------------------------------------------------------------------------------

-------------------------------------------------------------------------------

-------------------------------------------------------------------------------

---3/13-13-13-13-13-13-13-14-13-16----------------------------------------------

-------------------------------------------------14-14-14-16-16-14-16/17-16-14-

-------------------------------------------------------------------------------

[Verse]
B
Me bombardean otra vez
F# E
Vuelvo a construir mi casa
A B
Con una fuerza del mas allá
F#
Encuentro en tu mirada.
[Chorus]
B
Todos somos Héroes Anónimos
E F# G A
Guerreros en este lugar
B
Peleando con el corazón
E F# G A
Combatiendo tanta soledad
B E F# G A
Héroes Anónimos
B
This site uses cookies