Diana

To add a personal list must
or

Charly García

Version
studio
published by
iri
Tone
A-
A+
Slide
A -> La
Video
Chords
Translation
	 
[Tab]
e|-0---0--0-0--0--0---0-0-0-0--0---0--0-0-0-0--------0--|

b|-0---0--0-0--0--0---0-0-0-0--0---0--0-0-0-0--------0--|

g|-2-/-4--4-4--4--2---1-1-1-1--x---1--1-1-1-1--------2--|

D|------------------------- ---2-/-4--2-2-2-2--------0--|

A|---------------------------------------------2--4-----|

E|------------------------------------------------------|

[Riff]
E - Esus4 (E Asus2)
[Verse]
E Esus4 E Esus4
Diana nació sin bienvenidas
Esus4
en la ciudad.
E Esus4 E Esus4
Diana jugó a las escondidas
Esus4
por no llorar.
E Esus4 E Esus4
Nadie logró ponerle fin
Esus4
a su libertad.
A9(sus#4) Aadd9 A9(sus#4) Aadd9 A9(sus#4 Aadd9 Asus4
Dia - na de na - da nun - ca tendrás nada de Diana
E
por buscar nada de más.
[Tab]
e|-0---0--0-0--0--0---0-0-0-0--0---0--0-0-0-0--------0--|

b|-0---0--0-0--0--0---0-0-0-0--0---0--0-0-0-0--------0--|

g|-2-/-4--4-4--4--2---1-1-1-1--x---1--1-1-1-1--------2--|

D|------------------------- ---2-/-4--2-2-2-2--------0--|

A|---------------------------------------------2--4-----|

E|------------------------------------------------------|

[Verse]
E Esus4 E Esus4
Ella encontraba almas dormidas
E Esus4
al despertar
E Esus4 E Esus4
Cada mañana una nueva calle,
Esus4
un nuevo lugar
E Esus4 E Esus4
Como los gatos: nueve vidas,
Esus4
ningún hogar.
A9(sus#4) Aadd9 A9(sus#4) Aadd9 A9(sus#4 Aadd9 Asus4
Dia - na de na - da nun - ca tendrás nada de Diana
E
por buscar nada de más.
[Bridge]
| E | E | G | G |

| A9(sus#4) Aadd9 |

[Bridge]
G#m7 F#m7 A9(sus#4)/E
alguien entró en la oscuridad
Ebsus4 Eb G#m7
y la vió brillar
D#9 Bm7
y la oyó cantar
Esus4 E Dmaj7 E
e - sa melodía de amor
(como el viento)
Dm9 Cmaj7(sus9)
como una flor
(como el tiempo)
Fm9 Ebmaj7(sus9)
bajo el disfraz,
Dsus4 D
la eternidad.
[Chorus]
N/C
Diana nació como escondida
N/C
en ningún lugar
N/C
Diana jugó sin bienvenidas
N/C
a la libertad
N/C
nadie logró ponerle trampas
N/C
en la ciudad
E Esus4 E Esus4
Ella encontraba nuevas calles
E Esus4
ningún hogar
E Esus4 E Esus4
cada mañana almas dormidas
E Esus4
al despertar.
E Esus4 E Esus4
Como los gatos: nueve vidas,
Esus4
por no llorar.
[Outro]
A9(sus#4) Aadd9 A9(sus#4) Aadd9 A9(sus#4 Aadd9 Asus4
Uh uh uh
D/F#