Piano Bar

To add a personal list must
or

Charly García

Version
studio
published by
rafah
Tone
A-
A+
Slide
A -> La
Video
Chords
Translation
	 
[Tab]
e|------------------------------------------------------------------------|

b|-1--6--4--3--1--3--1--0-----------1--6--4--3--1--3--1--0----------------|

g|------------------------2--0--2--------------------------2--0--2--4--2--|

D|------------------------------------------------------------------------|

A|------------------------------------------------------------------------|

E|------------------------------------------------------------------------|

e|------------------------------------------------------------|

b|--1--6--4--3--1--3--1--0------------1--6--4--3--1--3--2--1--|

g|--------------------------2--0--2---------------------------|

D|------------------------------------------------------------|

A|------------------------------------------------------------|

E|------------------------------------------------------------|

[Verse]
Em7 F7
Rubias de New York, fantasmas de percal
Em7 F7
Presten atención, se ha abierto un piano bar
G/B F/A E/G#
¿Será que nací en el sur?
G/B F/A Bb Em7
¿Será que encendí la luz de tu amor?
[Intro]
[Chorus]
Em7 F7
Viudas de neón, amantes de Gardel
Em7 F7
Suena un bandoneón cerca del cabaret
G/B F/A E/G#
¿Será que nací en el sur?
G/B F/A Bb Em7
¿Será que encendí la luz de tu amor?
[Verse]
C G Am F
Las chicas tienen un lugar
C G Am F
donde viven esas cosas que asombran
C G Am F
Los chicos tienen un lugar
Esus4
donde ir a conversar
[Verse]
Em7 F7
Usa tu rubor, encoje tu disfraz
Em7 F7
Pluma de gorrión, sonrisa de zorzal
G/B F/A E/G#
Coloca vitrina al sur
G/B F/A Bb Em7
Reloca titila luz, la ciudad