Down On The Corner

To add a personal list must
or

Creedence Clearwater Revival

Version
studio
published by
iri
Tone
A-
A+
Slide
A -> La
Video
Chords
	 
[Intro]
e|-------------------|--------------------|

b|-------------------|--------------------|

g|-------------------|--------------------|

D|-------------------|--------------------|

A|--3--0------3--3--0|-------2--3--3------|

E|--------3----------|-3--3---------------|

e|-------------------|--------------------|

b|-------------------|--------------------|

g|-------------------|----------0--0------|

D|--3--0-----3--3--0-|-------2------------|

A|--------3----------|-3--3---------------|

E|-------------------|--------------------|

e|-------------------|--------------------|

B|-------------------|--------------------|

G|-------------------|--------------------|

D|-------------------|--------------------|

A|--3--0------3--3--0|-------2--3--3------|

E|--------3----------|-3--3---------------|

[Intro]
[Verse]
C G C
Early in the evenin' just about supper time, over by the courthouse,
G C F C
they're starting to unwind, four kids on the corner, trying to bring you up,
G C
Willy picks a tune out and he blows it on the harp.
[Chorus]
F C
Down on the corner,
G C
out in the street,
F C
Willy and the Poorboys are playin'
G C
bring a nickel, tap your feet.
[Verse]
C G C
Rooster hits the washboard, and people just gotta smile, Blinky thumps the
G C F C
gut bass and solos for awhile. Poor-boy twangs the rhythm out on his
G C
Kalamazoo. And Willy goes in to a dance and doubles on Kazoo.
[Chorus]
F C
Down on the corner,
G C
out in the street,
F C
Willy and the Poorboys are playin'
G C
bring a nickel, tap your feet.
[Intro]
e|-------------------|--------------------|

b|-------------------|--------------------|

g|-------------------|--------------------|

D|-------------------|--------------------|

A|--3--0------3--3--0|-------2--3--3------|

E|--------3----------|-3--3---------------|

e|-------------------|--------------------|

b|-------------------|--------------------|

g|-------------------|----------0--0------|

D|--3--0-----3--3--0-|-------2------------|

A|--------3----------|-3--3---------------|

E|-------------------|--------------------|

e|-------------------|--------------------|

B|-------------------|--------------------|

G|-------------------|--------------------|

D|-------------------|--------------------|

A|--3--0------3--3--0|-------2--3--3------|

E|--------3----------|-3--3---------------|

[Chorus]
F C
Down on the corner,
G C
out in the street,
F C
Willy and the Poorboys are playin'
G C
bring a nickel, tap your feet.
[Bridge]
C - G - C - G
[Verse]
C G C
You don't need a penny just to hang around, but if you got a nickel won't
G C F C
you lay your money down. Over on the corner, there's a happy noise,
G C
people come from all around to watch the magic boy.
[Chorus]
F C
Down on the corner,
G C
out in the street,
F C
Willy and the Poorboys are playin'
G C
bring a nickel, tap your feet.
[Chorus]
F C
Down on the corner,
G C
out in the street,
F C
Willy and the Poorboys are playin'
G C
bring a nickel, tap your feet.
[Outro]
F C
Down on the corner,
G C
out in the street,
F C
Willy and the Poorboys are playin'
G C
bring a nickel, tap your feet.
This site uses cookies