El Huracán

To add a personal list must
or

La Vela Puerca

Version
studio
published by
fabricio
Tone
A-
A+
Slide
A -> La
Video
Chords
Translation
	 
Feat: Fernando Madina
[Tab]
E5 C5 E5 C5
e|------------------------------------------------|

B|------------------------------------------------|

G|-------------0-2-4-5----------------------------|

D|-2-----0-2-4----------2-------------------------|

A|-2---3----------------2---3-2-3-2-3-2-3-2-------|

E|-0--------------------0-------------------------|

E5 C5 E5 C5 D5
e|------------------------------------------------|

B|------------------------------5--------7--------|

G|-------------0-2-4-5----------5--------7--------|

D|-2-----0-2-4----------2-------3--------5--------|

A|-2---3----------------2-------------------------|

E|-0--------------------0-------------------------|

[Intro]
| Am | D5 | C5 | B5 | Am |
[Verse]
Am Dm C5-B5-Am
Hoy la lluvia no me moja
Dm C5-B5-Am
Hoy en día soy el huracán
Dm C5-B5-Am
Voy levantando las hojas
Dm C5-B5-Am
Voy zarpado por todo el lugar
[Verse]
Am Dm C5-B5-Am
Hoy la fuerza me sonríe
Am Dm C5-B5-Am
Hoy la vida me quiere ayudar
Am Dm C5-B5-Am
Me levanto aunque me tiren
Am Dm C5-B5-Am
No me duele, no me ves llorar
[Chorus]
E F
Ahora saco lo que pasa y quién está
E F
Viene gente que me atiende y que se va
E F
Sólo así me arrancaré de la ilusión
E F G
De querer y no saber como volar
[Instrumental]
C5-B5-Am
[Verse]
Am Dm C5-B5-Am
Tengo un rayo atravesado,
Am Dm C5-B5-Am
Voy abierto así, de par en par,
Am Dm C5-B5-Am
Un ladrillo camuflado
Am Dm C5-B5-Am
Si bostezo vuelvo a procurar
[Verse]
Am Dm C5-B5-Am
Esta noche salvo al mundo
Am Dm C5-B5-Am
Meto charla hoy no puedo fallar
Am Dm C5-B5-Am
El bajón se presta inmundo
Am Dm C5-B5-Am
Tomo un trago y después otro más
[Chorus]
E F
Ella insiste y ya no me puedo negar
E F
Viene gente que me cobra y que se va
E F
Algún día me hablará mi corazón
G
Y con un palo y una flor me va calmar
[Bridge]
G5-B5-C5-D
[Bridge]
G5-B5-C5-D
Sólo se arrima para ver
G5-B5-C5-D
Si ya te puede conquistar
G5-B5-C5-D
Sólo se acerca para ser
G5-B5-C5-D G5-B5-C5-D
La que no puedas escapar
[Verse]
Am Dm C5-B5-Am
Tengo un rayo atravesado,
Am Dm C5-B5-Am
Voy abierto así, de par en par,
Am Dm C5-B5-Am
Un ladrillo camuflado
Am Dm C5-B5-Am
Si bostezo vuelvo a procurar
[Verse]
Am Dm C5-B5-Am
Esta noche salvo al mundo
Am Dm C5-B5-Am
Meto charla hoy no puedo fallar
Am Dm C5-B5-Am
El bajón se presta inmundo
Am Dm C5-B5-Am
Tomo un trago y después otro más
[Chorus]
E F
Ella insiste y ya no me puedo negar
E F
Viene gente que me cobra y que se va
E F
Algún día me hablará mi corazón
G
Y con un palo y una flor me va calmar
[Bridge]
| G5 B5 C5 |x2
[Tab]
G5 B5 C5
e|-------------------------------------|

B|----3----3----3---1--0---------------|

G|-----------------------2--0----------|

D|-00---44---55---5--------------------| x2

A|-------------------------------------|

E|-------------------------------------|

G5 B5 C5
e|----------------------------------------------|

B|-------8----8----8----8-----------------------|

G|-/7-7-9--7-9--7-9--7-9------------------------|

D|----------------------------------------------|

A|----------------------------------------------|

E|----------------------------------------------|

G5 B5 C5
e|------15--------------------------------------|

B|-8/12----10/12/10-8---------8-8/12------------|

G|------------------------7-9-------------------| /: slide

D|--------------------7/9-----------------------|

A|----------------------------------------------|

E|----------------------------------------------|

[Bridge]
G5 B5 C5 G5 B5 C5
Sólo se arrima para ver
G5 B5 C5
Si ya te puede conquistar
G5 B5 C5
Sólo se acerca para ser
D5 C5 B5 Am
La que no puedas escapar