Alma de Nogal

To add a personal list must
or

Los Chalchaleros

Version
studio
published by
rafah
Tone
A-
A+
Slide
A -> La
Video
Chords
Translation
	 
[Tab]
E|-----5-7-5-------5-3-------2-3-2---2--------0--2-0-0-2-4-5------|

B|----7-----------5----5----3--------2-------0---3-2-2-3----------|

G|---7-----------6---------4-------2--------1---------------------|

D|--7-----------7---------4--------4-------2----------------------|

A|-5-----------7---------2---------4------2-----------------------|

E|------------5--------------------2-----0------------------------|

E|--2-3-5-7-9--10--12-10-7/9---10----5---7----9----10--12-14-15---|

B|--3-5-7-8-10-12--14-12-8/10--12--7---8---10---12-----14-15-17---|

G|----------------------------------------------------------------|

D|----------------------------------------------------------------|

A|----------------------------------------------------------------|

E|----------------------------------------------------------------|

E|-14-12-14----12-10-------------------------| |

B|-------------------------------------------| |

G|-14-12-14-12----11-------------------------| |

D|--------------------------------0-1-2-3-4--| |

A|--------------------0-1-2-3-4/5------------| |

E|-------------------------------------------| |

[Verse]
D F#m
Viene mi canto solo
Bm7 E7 A7
por una senda dormida
D B7 Em
la guitarra: madera hecha vida
Gm7 D E7 A7
Vientre de zambas, manos curtidas
D B7 Em
la guitarra: madera hecha vida
Gm7 D E7 A7
vientre de zambas, manos curtidas
[Verse]
D F#m
Grillo de amanecidas
Bm7 E7 A7
que se mezcló en el gauchaje
D B7 Em
compañera, clarín de partida
Gm7 D E7 A7
sonora lanza que dio coraje
D B7 Em
compañera, clarín de partida
Gm7 D E7 A7
sonora lanza que dio coraje
[Tab]
E|-------4-2-| |

B|-----------| |

D-0H2P0-----||

E|-----------| |

B|-----------| |

G|-----------| |

[Chorus]
F#7 Bm7
La tierra borda dejando
E7 A7
al aire su cauce arisco
F#m G
carne de monte, sombrío temblar
Gm A7
grito de bagualero
D B7 Em
amanecer de torcaza y jilguero
Gm D A7 D
al pie del silencio de la no che
(Segunda)
[Verse]
D F#m
Hembra que canta y llora
Bm7 E7 A7
beso que tiembla en la sombra
D B7 Em
regresará, vertiendo en el alba
Gm7 D E7 A7
luz de las viñas, tiernas vidalas
D B7 Em
regresará, vertiendo en el alba
Gm7 D E7 A7
luz de las viñas, tiernas vidalas
[Verse]
D F#m
Sangra el nogal del monte
Bm7 E7 A7
fruto, savia envejecida
D B7 Em
germinará, dejando la vida
Gm7 D E7 A7
flor de su seno, rama que vibra
D B7 Em
germinará, dejando la vida
Gm7 D E7 A7
flor de su seno, rama que vibra
[Tab]
E|-------4-2-| |

B|-----------| |

D-0H2P0-----||

E|-----------| |

B|-----------| |

G|-----------| |

[Chorus]
F#7 Bm7
La tierra borda dejando
E7 A7
al aire su cauce arisco
F#m G
carne de monte, sombrío temblar
Gm A7
grito de bagualero
D B7 Em
amanecer de torcaza y jilguero
Gm D A7 D
al pie del silencio de la no che
This site uses cookies