Heart-Shaped Box

To add a personal list must
or

Nirvana

Version
studio
published by
fabricio
Tone
A-
A+
Slide
A -> La
Video
[Tuning: Eb Ab Db Gb Bb Eb (-1/2 Tone)]
Chords
	 
Tuning: Db Ab Db Gb Bb Eb


[Intro]
Eb|--------------------------------------------------------------------|

Bb|--------------------------------------------------------------------|

Gb|-----2--------------------------------2---------------------------0-|

Db|---2---2-----3---------0-----0----2-2---2-----3-----2/4-4---4---4-0-|

Ab|-0---------3---3-----0-----0---0--0---------3-------------0---3-3---|

Eb|---------3-------0------------------------3-----3-0-----------------|

[Intro]
A5 F5 D5 A5 F5 D


[Verse]
A F D A F D
She eyes me like a pisces when I am weak
A F D A F D
I've been locked inside your heart-shaped box for weeks
A F D A F D
I've been drawn into your magnet tarpit trap
A F D A F D
I wish I could eat your cancer when you turn black
[Chorus]
A5 F5 D
Hey! Wait! I got a new complaint,
A5 F5 D5
forever in debt to your priceless advice
A5 F5 D
Hey! Wait! I got a new complaint,
A5 F5 D5
forever in debt to your priceless advice
A5 F5 D
Hey! Wait! I got a new complaint,
A5 F5 D5 F D
forever in debt to your priceless advice,
F D
Your advice
[Verse]
A F D A F D
Meat-eating orchids forgive no one just yet
A F D A F D
Cut myself on angel hair and baby's breath
A F D A F D
Broken hymen of your highness I'm left black
A F D A F D
Throw down your umbilical noose so I can climb right back
[Chorus]
A5 F5 D
Hey! Wait! I got a new complaint,
A5 F5 D5
forever in debt to your priceless advice
A5 F5 D
Hey! Wait! I got a new complaint,
A5 F5 D5
forever in debt to your priceless advice
A5 F5 D
Hey! Wait! I got a new complaint,
A5 F5 D5 F D
forever in debt to your priceless advice,
F D
Your advice
Am F
[Solo]
D#|-------------------------------|-------------------------|

A#|-------8b10--r8p7------6b8-r6--|------5b6---r5--3--1--0--|

F#|-------------------------------|-3-----------------------|

C#|--7---------------5------------|-3-----------------------|

G#|-------------------------------|-------------------------|

C#|-------------------------------|-------------------------|

D#|-------------------------------|-------------------------|

A#|-------8b10--r8--------6b8-r6--|------5b6---r5--3--1--0--|

F#|-------------------------------|-3-----------------------|

C#|--7---------------5------------|-3-----------------------|

G#|-------------------------------|-------------------------|

C#|-------------------------------|-------------------------|

D#|----------------|-------------------------|

A#|----------------|-------------------------|

F#|--2-------------|---------2---------------|

C#|--2-------------|---------2---------------|

G#|--0-------------|---------0---------------|

C#|----------------|-------------------------|

[Verse]
A F D A F D
She eyes me like a pisces when I am weak
A F D A F D
I've been locked inside your heart-shaped box for weeks
A F D A F D
I've been drawn into your magnet tarpit trap
A F D A F D
I wish I could eat your cancer when you turn black
[Chorus]
A5 F5 D
Hey! Wait! I got a new complaint,
A5 F5 D5
forever in debt to your priceless advice
A5 F5 D
Hey! Wait! I got a new complaint,
A5 F5 D5
forever in debt to your priceless advice
A5 F5 D
Hey! Wait! I got a new complaint,
A5 F5 D5 F D
forever in debt to your priceless advice,
F D
Your advice