Lounge Act

To add a personal list must
or

Nirvana

Version
studio
published by
fabricio
Tone
A-
A+
Slide
A -> La
Video
Chords
	 
[Intro]
e|------------------|------------------|-----------------|-----------------|

B|------------------|------------------|-----------------|-----------------|

G|------------------|------------------|-----------------|-----------------|

D|--------4---------|------------------|-----------------|-----------------|

A|------5-----------|------------------|-----5-4---------|-----------------|

E|-/7-------2---3-2-|-3---/-10---8-7-5-|-7-------2---3-2-|-3---/-8---7-5-3-|

[Riff]
B G C
e|-----------------|-3-3-------------|

B|-4---x-4---4-4-0-|-0-0---5---5-5-0-|

G|-4---x-4---4-4-0-|-0-0-x-5---5-5-0-|

D|-4---x-4---4-4-0-|-0-0-x-5---5-5-0-| x2

A|-2---x-2---2-2-0-|-x-x-x-3---3-3-0-|

E|-----------------|-3-3-x-----------|

[Verse]
B G5 C B
Truth, covered in security,
G5 C B
I can't let you smother me,
G5 C B
I'd Like to, but it couldn't work
G5 C B
Trading off and taking turns
G5 C
I don't regret a thing
[Chorus]
E5 A
And I've got this friend you see,
D5 G
Who makes me feel,
E5 A
And I wanted more
D5 G
Than I could steal
E5 A
I'll arrest myself,
D5 G
I'll wear a shield
E5 A
I'll go out of my way
D5 G A5
To prove I still
G# G A5
Smell her on you
[Verse]
B G5 C
Don't tell me what I wanna hear,
B G5 C
Afraid of never knowing fear
B G5 C
Experience anything you need
B G5 C
I'll keep fighting jealousy,
B G5 C
Until it's fucking gone
[Chorus]
E5 A
And I've got this friend you see,
D5 G
Who makes me feel,
E5 A
And I wanted more
D5 G
Than I could steal
E5 A
I'll arrest myself,
D5 G
I'll wear a shield
E5 A
I'll go out of my way
D5 G A5
To prove I still
G# G A5
Smell her on you
[Bridge]
| B G5 C |x2


[Verse]
B G5 C B
Truth, covered in security,
G5 C B
I can't let you smother me,
G5 C B
I'd Like to, but it couldn't work
G5 C B
Trading off and taking turns
G5 C
I don't regret a thing
[Chorus]
E5 A
And I've got this friend you see,
D5 G
Who makes me feel,
E5 A
And I wanted more
D5 G
Than I could steal
E5 A
I'll arrest myself,
D5 G
I'll wear a shield
E5 A
I'll go out of my way
D5 G
To make you a deal
E5 A
We've made a pact
D5 G
To learn form who
E5 A
Ever we want,
D5 G
Without new rules
E5 A
And we'll share what's lost
D5 G
and what we grew
E5 A
They'll go out of their way
D5 G A5
To prove they still
G# G A5
Smell her on you
G# G A5
They still
G# G A5
Smell her on you
G# G A5
Smell her on you