Soy Santiagueño, Soy Chacarera

To add a personal list must
or

Raly Barrionuevo

Version
studio
published by
iri
Tone
A-
A+
Slide
A -> La
Video
Chords
Translation
	 
[Tab]
e|--------------------|-------------------------|

b|--------------------|-------------------------|

g|--------------------|-------------------------|

D|-10-9-10---10-9-7-9-|-------------------------|x2

A|--------------------|--14-12-14---14-12-11-12-|

E|--------------------|-------------------------|

[Verse]
Am Dm E7 Am
Era un murmullo infinito venido del más allá
Dm E7 Am
era la voz de una madre llenando la inmensidad
C D E7 Am
Mi corazón se hizo niño para escuchar la canción
C D E7 Am
era viajera del tiempo, era de luz y de amor
Dm E7 Am
La tierra con su latido al universo me hundió.
[Chorus]
C G E7 Am
Soy santiagueño, soy chacarera
C Dm E7 Am
como el coyuyo cantor nacido desde la tierra
C G E7 Am
Soy santiagueño, soy chacarera
C Dm E7 Am
como el coyuyo cantor nacido desde la tierra
[Tab]
e|-----------------|-----------------|

b|-----------------|-----------------|

g|-5-4-5---5-4-2-4-|-4-2-4---4-2-1-2-|

D|-----------------|-----------------|x2

A|-----------------|-----------------|

E|-----------------|-----------------|

[Verse]
Am Dm E7 Am
Se balancea la rama que está en el algarrobal
Dm E7 Am
vuelan las vainas doradas el árbol se vuelve pan
C D E7 Am
se está acunando la infancia se va endulzando el cantar
C D E7 Am
con la armonía sagrada de la canción maternal
Dm E7 Am
el árbol guarda la escencia del movimiento inicial.
[Chorus]
C G E7 Am
Soy santiagueño, soy chacarera
C Dm E7 Am
como el coyuyo cantor nacido desde la tierra
C G E7 Am
Soy santiagueño, soy chacarera
C Dm E7 Am
como el coyuyo cantor nacido desde la tierra
[Solo]
Am Dm E7 Am
e|-------------------|--5-7-8---7-5---------------4-----|

b|-------------------|-5------------8-6---6-5-3-5---3---|

g|-------------------|--------------------------------5-|

D|-------------------|----------------------------------|

A|-0-0--0-0--2-0---0-|----------------------------------|

E|---------------4---|----------------------------------|

Am Dm E7 Am C D E7 Am
e|--5-7-8---7-5----------------4-----|---5-7-8--7-5-12-10---10-10-12----------------|

b|-5------------8-6---6-5-3-5-5--3---|-5-----------------------------13----12-13-10-|

g|---------------------------------5-|----------------------------------------------|

D|-----------------------------------|----------------------------------------------|

A|-----------------------------------|----------------------------------------------|

E|-----------------------------------|----------------------------------------------|

Am Dm E7 Am
e|--5-7-8---7-5----------------4-----|

b|-5------------8-6---6-5-3-5-5--3---|

g|---------------------------------5-|

D|-----------------------------------|

A|-----------------------------------|

E|-----------------------------------|

[Chorus]
C G E7 Am
Soy santiagueño, soy chacarera
C Dm E7 Am
como el coyuyo cantor nacido desde la tierra
C G E7 Am
Soy santiagueño, soy chacarera
C Dm E7 Am
como el coyuyo cantor nacido desde la tierra
[Outro]
Am