Version
studio
published by
iri
Tone
A-
A+
Slide
A -> La
Video
Chords
Translation
	 
[Instrumental]
C#
[Tab]
B G#7 C# F# B B G#7 C#
e|---2-----2-----4-----6-----7-|--------------------------------|

b|---4-----4-----6-----6-----7-|-----7-----7------7------7----9-|

g|-4---4-5---5-6---6-7---7-8---|---8-----8------8------8--------|

D|-----------------------------|-9-----9-----10-----10-----11---|

A|-----------------------------|--------------------------------|

E|-----------------------------|--------------------------------|

F# B F#7 B
e|------------9-6---4---2-------------|----------------|

b|-7-9-7----7-----------2---2-5---4-5-|----------------|

g|-------10---9-6-4---3---3-----4-----|----------------|

D|------------------------------------|----------------|

A|------------------------------------|-----1-2-4-5-6--|

E|------------------------------------|-2-4------------|

[Verse]
B C#7 F#
Arden mis labios por ti
F#7 B
muriéndome de amor,
C#7
porque eres mi dueña
F#7 E B F#7 B
santiagueña de mi corazón
C#7
porque eres mi dueña
F#7 E B F#7 B
santiagueña de mi corazón.
[Verse]
B C#7 F#
Temblando vuelves a mí
F#7 B
dejandome tu adios,
C#7 F# E
tus manos pequeña santiagueña
B F#7 B
de mi aridente corazón.
[Tab]
e|----------------------9-11-11-9--11-9h11p9-6-|-6-6-9--6-4-2-2-4-2-0---|

b|--------------9-11-12---12-12-11-12-11-----7-|-7-7-11-7-5-3-3-5-3-2-4-|

g|-11-11-11--11--------------------------------|----------------------4-|

D|---------------------------------------------|------------------------|

A|---------------------------------------------|------------------------|

E|---------------------------------------------|------------------------|

[Chorus]
Bm F#7
Dormiran mis ojos sobre tu pelo
Em F#7 Bm
como en las habras al sol,
A7
amorosa flor de mi tierra
Em C#7
miel santiagueña,
F# F#7 B
dulce como el mistol,
C#7
mis sueños te sueñan
F# E B F#7 B
santiagueña, de mi corazón.
[Tab]
B G#7 C# F# B B G#7 C#
e|---2-----2-----4-----6-----7-|--------------------------------|

b|---4-----4-----6-----6-----7-|-----7-----7------7------7----9-|

g|-4---4-5---5-6---6-7---7-8---|---8-----8------8------8--------|

D|-----------------------------|-9-----9-----10-----10-----11---|

A|-----------------------------|--------------------------------|

E|-----------------------------|--------------------------------|

F# B F#
e|------------9-6---4---2-------------|

b|-7-9-7----7-----------2---2-5---4-5-|

g|-------10---9-6-4---3---3-----4-----|

D|------------------------------------|

A|------------------------------------|

E|------------------------------------|

[Verse]
B C#7 F#
Lloran mis ojos por tí
F#7 B
lagrimas de pasión,
C#7
si tú me desdeñas
F# E B F#7 B
santiagueña de mi corazón
C#7
si tú me desdeñas
F# E B F#7 B
santiagueña de mi corazón.
[Verse]
B C#7 F#
Beso tu nombre al partir
F#7 B
llamandome tú voz,
C#7 F# E
carita risueña santiagueña
B F#7 B
de mi ardiente corazón.
[Tab]
e|----------------------9-11-11-9--11-9h11p9-6-|

b|--------------9-11-12---12-12-11-12-11-----7-|

g|-11-11-11--11--------------------------------|

D|---------------------------------------------|

A|---------------------------------------------|

E|---------------------------------------------|

e|-6-6-9--6-4-2-2-4-2-0---|

b|-7-7-11-7-5-3-3-5-3-2-4-|

g|----------------------4-|

D|------------------------|

A|------------------------|

E|------------------------|

[Chorus]
Bm F#7
Dormiran mis ojos sobre tu pelo
Em F#7 Bm
como en las habras al sol,
A7
amorosa flor de mi tierra
Em C#7
miel santiagueña,
F# F#7 B
dulce como el mistol,
C#7
mis sueños te sueñan
F# E B F#7 B
santiagueña, de mi corazón.