I fought the law

To add a personal list must
or

The Clash

Version
studio
published by
iri
Tone
A-
A+
Slide
A -> La
Video
Chords
	 
[Intro]
D D G A
e|-----------------------------------------------------------|

b|-----------------------------------------------------------|

g|-(12)/14-14-14-(12)/14-14-14--(12)/14-14-14--(12)/14-14-14-|

D|-----------------------------------------------------------|

A|-----------------------------------------------------------|

E|-----------------------------------------------------------|

D D A G F#m D
e|----------------------------------------------------------|

b|----------------------------------------------------------|

g|-(12)/14-14-14-(12)/14-14-14--14--12--11------------------|

D|-------------------------------------------12-------------|

A|----------------------------------------------------------|

E|----------------------------------------------------------|

[Verse]
D D G D
Breakin' rocks in the hot sun
D D A D
I fought the law and the law won
D D A D
I fought the law and the law won
D D G D
I needed money 'cause I had none
D D A D
I fought the law and the law won
D D A D
I fought the law and the law won
[Chorus]
G
I left my baby and it feels so bad
D
Guess my race is run
G
She the best that I ever had
D G D
I fought the law and the law won
D A G F#m D
I fought the law and the
[Solo]
e|--------------------------------14-|

B|------------------------12--15-----|

G|----------11--11/12--14------------|

D|----12/14--------------------------| x4

A|-14--------------------------------|

E|-----------------------------------|

e|-----------------------------------------------------------|

b|-----------------------------------------------------------|

g|-(12)/14-14-14-(12)/14-14-14--(12)/14-14-14--(12)/14-14-14-|

D|-----------------------------------------------------------|

A|-----------------------------------------------------------|

E|-----------------------------------------------------------|

e|----------------------------------------------------------|

b|----------------------------------------------------------|

g|-(12)/14-14-14-(12)/14-14-14--14--12--11------------------|

D|-------------------------------------------12-------------|

A|----------------------------------------------------------|

E|----------------------------------------------------------|

[Verse]
D G D
Robbin' people with a six gun
D A D
I fought the law and the law won,
D D A D
I fought the law and the law won
D G D
I lost my girl and I lost my fun
D A D
I fought the law and the law won
D A D
I fought the law and the law won.
[Chorus]
G
I left my baby and it feels so bad,
D
I guess my race is run
G
She's the best girl that I ever had
D A D
I fought the law and the law won,
D A G F# D
I fought the law and the
[Bridge]
[D - G - A - D - A - G - F# - D]x2
[Outro]
NC
I fought the law and the law won, I fought the law and the law won
NC
I fought the law and the law won, I fought the law and the law won
D A D D A D
I fought the law and the law won, I fought the law and the law won
D A D D A G F# D
I fought the law and the law won, I fought the law and the
This site uses cookies